Зачем топтать мою любовь как играть на гитаре


Зачем топтать мою любовь. Аккорды, табы, на гитаре

«Зачем топтать мою любовь» (от группы СМЫСЛОВЫЕ ГАЛЛЮЦИНАЦИИ ) — очень понравилась эта песня в акустическом варианте! Кто не слышал, найдите обязательно. Перебор второй гитары просто завораживает! Поэтому, аккорды снимал именно с этой версии.
Звучит композиция в тональности Hm (си-миноре). Для упрощения перевел их в Am (ля-минор). Конечно же ее нужно играть всю гитарным боем, а при желании подыграть перебором на второй гитаре, что я и сделал  используя программу соединив две звуковые дорожки в одну…

Бой Зачем топтать мою любовь

Вниз—вверх-глушить—вниз-вверх-вверх—вверх-глушить—вниз-вверх-…

  • в куплетах проигрывается по 1-му разу на каждом аккорде, кроме последних 3-х. На E7sus4 играем (Вниз—вверх-глушить—вниз-),  далее на Esus4 (вверх-вверх—вверх-глушить—) и на E доигрываем (вниз-вверх-…)
  • в припевах тоже играется по одному разу, за исключением связки аккордов (С, Dsus4, E). На С играем (Вниз—вверх-глушить—вниз-), а на последних 2-х немного по другому. На Dsus4 (вверх—вверх-вниз-) и на Е (вверх—вверх-вниз-вверх-)

Аккорды Зачем топтать мою любовь

(Акустич. версия)

На этих аккордах лучше всего играть с зажатым каподастром на 2-м ладу.

Вступление / проигрыш:

Am, Dm7, C, E7sus4, Esus4 E — 2 раза

Припев — 2 раза

Табы проигрыша для соло-гитары:

 Am Dm7 
 2|----1------1----1----1------1----1---
 3|--2------2----2----2------2----2-----
 
 
 C E7sus4 Esus4 E
 2|----1------1----1--------3--5-------
 3|--0------0----0----1--4--------4--1-

Припев

Видео Зачем топтать мою любовь

(кавер, аппликатуры аккордов и разбор боя)

«ВЕЧНО МОЛОДОЙ» (Смысловые Галлюцинации)
«ПОЛЮСА»

Смысловые Галлюцинации - Зачем топтать мою любовь, аккорды для гитары

Intro: Em Am Зачем топтать мою любовь D G B Em Am

 D G B Em Am Странно, когда ты сходишь с ума G F#m B У меня появляется чувство вины Em Am Я тебя понимаю ведь мне иногда G F#m B Тоже снятся страшные сны Em Am Снится, что мне не дожить до весны G F#m B Снится, что вовсе весна умерла Em Am Страх во мне оставляет следы G F#m B Я думал, что страх это просто слова Припев: Em Am Зачем топтать мою любовь D G B Ее и так почти не стало Em Am Я разбиваю руки в кровь D G B Я не сошел с ума - так надо Em Am Нам, наверное, лучше вернуться домой G F#m B И лучше не видится несколько дней Em Am Уходил с одной - возвращаюсь с другой G F#m B Мне нужно расстаться с тобою скорей Em Am Мне нужно избавиться, чтобы стать ближе G F#m B Чтоб не взрывалась моя голова Em Am Мне нужно понять, что я ненавижу G 


F#m B Я думал, что ненависть просто слова Припев: Em Am Зачем топтать мою любовь D G B Ее и так почти не стало Em Am Я разбиваю руки в кровь D G B Я не сошел с ума - так надо

Смысловые Галлюцинации - Зачем топтать мою любовь, аккорды для гитары

Bm Em Странно, когда ты сходишь с ума, D F# У меня появляется чувство вины, Bm Em Я тебя понимаю, ведь мне иногда, D F# Тоже снятся страшные сны. Bm Em Снится, что мне не дожить до весны, D F# Снится, что вовсе весна умерла, Bm Em Страх во мне оставляет следы, D F# Я думал, что страх - это просто слова. Припев: Bm Em Зачем топтать мою любовь, A D F# Её и так почти не стало, Bm Em Я разбиваю руки в кровь, A D F# Я не сошел с ума - так надо. Bm Em Нам, наверное, лучше вернуться домой, D F# И лучше не видеться несколько дней, Bm Em


 Уходил с одной, возвращаюсь с другой, D F# Мне нужно расстаться с тобою скорей. Bm Em Мне нужно избавиться, чтобы стать ближе, D F# Чтоб не взорвалась моя голова, Bm Em Мне нужно понять, что я ненавижу, D F# Я думал, что ненависть просто слова. Припев: Bm Em Зачем топтать мою любовь, A D F# Её и так почти не стало, Bm Em Я разбиваю руки в кровь, A D F# Я не сошел с ума - так надо. Bm Em Зачем топтать мою любовь, A D F# Её и так почти не стало, Bm Em Я разбиваю руки в кровь, A D F# Я не сошел с ума - так надо.

Смысловые Галлюцинации - Зачем топтать мою любовь, аккорды для гитары

Cm Fm B D# G Зачем топтать мою любовь... Cm Fm B D# G Cm Fm Странно, когда ты сходишь с ума D# F B У меня появляется чувство вины Cm Fm Я тебя понимаю, ведь мне иногда D# F B Тоже снятся страшные сны. Cm Fm Снится, что мне не дожить до весны D# F B Сниться, что вовсе весна умерла Cm Fm Страх во мне оставляет следы D# F B Я думал, что страх это просто слова. Припев: Сm Fm Зачем топтать мою любовь B D# G Ее и так почти не стало Cm Fm Я разбиваю руки в кровь B D# G Я не сошел с ума, так надо. 


Cm Fm Нам, наверное, лучше вернуться домой D# F B И лучше не видеться несколько дней Cm Fm Уходил с одной, возвращаюсь с другой D# F B Мне нужно расстаться с тобою, скорей Cm Fm Мне нужно избавиться, чтобы стать ближе D# F B Что б не взорвалась моя голова. Cm Fm Мне нужно понять, что я ненавижу, D# F B Я думал, что ненависть просто слова... Припев: x2 Сm Fm Зачем топтать мою любовь B D# G Ее и так почти не стало Cm Fm Я разбиваю руки в кровь B D# G Я не сошел с ума, так надо. Solo:E----------------------------------------1-3---- B1-4--1-4-1-4-4--1-4-1-4--4--1-4-1-4--0-3---3-0- x3 G------------1-----------3---------------------- Е----------------------------------------1-3---- B1-4--1-4-1-4-4--1-4-1-4--4--1-4-1-4--0-3---3-0-1 G------------1-----------3---------------------- Припев: Сm Fm Зачем топтать мою любовь B D# G Ее и так почти не стало Cm Fm Я разбиваю руки в кровь B D# G Я не сошел с ума, так надо.

Смысловые Галлюцинации - Зачем топтать мою любовь, аккорды для гитары

 Bm Em7 Зачем топтать мою любовь?.. Проигрыш: A | D D Em F# | Bm | Em7 | A | D D Em F# Bm Em7 Странно, когда ты сходишь с ума, D C#m F#sus4 F#7 У меня появляется чувство вины. Bm Em7 Я тебя понимаю, ведь мне иногда D C#m F#sus4 F#7 Тоже снятся страшные сны. Bm Em7 Снится, что мне не дожить до весны, D C#m F#sus4 F#7 Снится, что вовсе весна умерла. Bm Em7 Страх во мне оставляет следы, D C#m F#sus4 F#7 Я думал, что страх - это просто слова. Припев: Bm Em7 A Зачем топтать мою любовь? D Em F# Ее и так почти не стало. Bm Em7 A Я разбиваю руки в кровь, D Em F# Я не сошел с ума. Так надо! Bm Em7 Нам, наверное, лучше вернуться домой D C#m F#sus4 F#7 И лучше не видеться несколько дней. Bm Em7 Уходил с одной, возвращаюсь с другой, D C#m F#sus4 F#7 Мне нужно расстаться с тобою скорей. Bm Em7 Мне нужно избавиться, чтобы стать ближе, D C#m F#sus4 F#7 Чтоб не взрывалась моя голова. Bm Em7 Мне нужно понять, что я ненавижу, D C#m F#sus4 F#7 Я думал, что ненависть - просто слова. Припев: Bm Em7 A Зачем топтать мою любовь? D Em F# Ее и так почти не стало. Bm Em7 A Я разбиваю руки в кровь, D Em F# Я не сошел с ума. Так надо! Bm Em7 A Зачем топтать мою любовь? D Em F# Ее и так почти не стало. Bm Em7 A Я разбиваю руки в кровь, D Em F# Я не сошел с ума. Так надо! Bm Em7 A Зачем топтать мою любовь? D Em F# Ее и так почти не стало. Bm Em7 A Я разбиваю руки в кровь, D Em F# Я не сошел с ума. Так надо!

Табулатура: Смысловые Галлюцинации - Зачем топтать мою любовь...


[Вступление]:
 
 E |---2---2h4p2---2-------2---2h4p2---2-------2---2h4p2---2-------2---2h4p2---2---|
 H |-0---0-----------0---0---0-----------0---0---0-----------0---0---0-----------0-|
 G |-------------------------------------------------------------------------------|
 D |-------------------------------------------------------------------------------|
 A |-------------------------------------------------------------------------------|
 E |-------------------------------------------------------------------------------|
 
 E |---2---2h4p2---2-------2---2h4p2---2-------2---2h4p2---2-------2---2h4p2---2---|
 H |-0---0-----------0---0---0-----------0---0---0-----------0---0---0-----------3-|
 G |-------------------------------------------------------------------------------|
 D |-------------------------------------------------------------------------------|
 A |-------------------------------------------------------------------------------|
 E |-------------------------------------------------------------------------------|
 
 E |---2---2h4p2---2-------2---2h4p2---2-------2---2h4p2---2-------2---2h4p2---2---|
 H |-3---3-----------3---3---3-----------5---5---5-----------2---2---2-----------0-|
 G |-------------------------------------------------------------------------------|
 D |-------------------------------------------------------------------------------|
 A |-------------------------------------------------------------------------------|
 E |-------------------------------------------------------------------------------|
 
 E |---2---2h4p2---2-------2---2h4p2---2-------2---2h4p2---2-------2---2h4p2---2---|
 H |-0---0-----------0---0---0-----------0---0---0-----------0---0---0-----------3-|
 G |-------------------------------------------------------------------------------|
 D |-------------------------------------------------------------------------------|
 A |-------------------------------------------------------------------------------|
 E |-------------------------------------------------------------------------------|
 
 E |---2---2h4p2---2-------2---2h4p2---2-------2---2h4p2---2-------2---2h4p2---2---|
 H |-3---3-----------3---3---3-----------5---5---5-----------2---2---2-----------0-|
 G |-------------------------------------------------------------------------------|
 D |-------------------------------------------------------------------------------|
 A |-------------------------------------------------------------------------------|
 E |-------------------------------------------------------------------------------|
 
 
 [Куплет] 1:
 
 (Hm) (Em)
 Странно. Когда ты сходишь с ума,
 E |---2-------2-------2-------2-------2-------2-------2---2h4p2---2---|
 H |-0---0---0---0---0---0---0---0---0---0---0---0---0---0-----------3-|
 G |-------------------------------------------------------------------|
 D |-------------------------------------------------------------------|
 A |-------------------------------------------------------------------|
 E |-------------------------------------------------------------------|
 
 (D) (F#)
 У меня появляется чувство вины.
 E |---2-------2-------2-------2-------2-------2-------2-------2---|
 H |-3---3---3---3---3---3---3---3---5---5---5---5---2---2---2---2-|
 G |---------------------------------------------------------------|
 D |---------------------------------------------------------------|
 A |---------------------------------------------------------------|
 E |---------------------------------------------------------------|
 
 (Hm) (Em)
 Я тебя понимаю, ведь мне иногда
 E |---2-------2-------2-------2-------2-------2-------2---2h4p2---2---|
 H |-0---0---0---0---0---0---0---0---0---0---0---0---0---0-----------3-|
 G |-------------------------------------------------------------------|
 D |-------------------------------------------------------------------|
 A |-------------------------------------------------------------------|
 E |-------------------------------------------------------------------|
 
 (D) (F#)
 Тоже снятся страшные сны.
 E |---2-------2-------2-------2-------2-------2-------2-------2---|
 H |-3---3---3---3---3---3---3---3---5---5---5---5---2---2---2---2-|
 G |---------------------------------------------------------------|
 D |---------------------------------------------------------------|
 A |---------------------------------------------------------------|
 E |---------------------------------------------------------------|
 
 (Hm) (Em)
 Снится, что мне не дожить до весны,
 E |---2---2h4p2---2-------2---2h4p2---2-------2---2h4p2---2-------2---2h4p2---2---|
 H |-0---0-----------0---0---0-----------0---0---0-----------0---0---0-----------3-|
 G |-------------------------------------------------------------------------------|
 D |-------------------------------------------------------------------------------|
 A |-------------------------------------------------------------------------------|
 E |-------------------------------------------------------------------------------|
 
 (D) (F#)
 Снится, что вовсе весна умерла.
 E |---2---2h4p2---2-------2---2h4p2---2-------2-------2-------2-------2---|
 H |-3---3-----------3---3---3-----------5---5---5---5---5---2---2---2---2-|
 G |-----------------------------------------------------------------------|
 D |-----------------------------------------------------------------------|
 A |-----------------------------------------------------------------------|
 E |-----------------------------------------------------------------------|
 
 (Hm) (Em)
 Страх во мне оставляет следы.
 E |---2---2h4p2---2-------2---2h4p2---2-------2---2h4p2---2-------2---2h4p2---2---|
 H |-0---0-----------0---0---0-----------0---0---0-----------0---0---0-----------3-|
 G |-------------------------------------------------------------------------------|
 D |-------------------------------------------------------------------------------|
 A |-------------------------------------------------------------------------------|
 E |-------------------------------------------------------------------------------|
 
 (D) (F#)
 А я думал, что страх - это просто слова...
 E |---2---2h4p2---2-------2---2h4p2---2-------2-------2-------2-------2---|
 H |-3---3-----------3---3---3-----------5---5---5---5---5---2---2---2---2-|
 G |-----------------------------------------------------------------------|
 D |-----------------------------------------------------------------------|
 A |-----------------------------------------------------------------------|
 E |-----------------------------------------------------------------------|
 
 
 [Припев]: 
 
 (Hm) (Em) (A) (D) (F#)
 Зачем топтать мою любовь? Ее и так почти не стало.
 E |---------0-------------0-----2-3---0-2-3-------------------0-------0-------0-----------------2-------------2-|
 H |---3-------3-----3-------3-----------------8-7-4h5p4-3-2-------2-------2-----2-------3-----3-------2-----2---| 


Смотрите также