Сектор газа загробная любовь как играть


Сектор Газа - Любовь загробная, аккорды для гитары

 Em Опять с нетерпением жду я конец октября, Am Конец октября с нетерпением жду я не зря - Em Опять с тридцать первого ночью ко мне ты придешь, Am Смешается снова смертельно-любовная дрожь, G B7 Em Ты придешь, из могилы придешь. D Am Em Тела наши снова сольются под светом луны, D Am Em Любовь наша вечна, друг другу мы сильно нужны, D Am Em Твой череп оскаленный вновь улыбается мне G B7 Em Я буду ласкать тебя нежно при полной луне. Em Давно умерла ты для всех, только не для меня, Am Пусть труп твой прекрасный за несколько лет провонял, Em Червями изъедена наша прогнившая плоть, Am Мы - грешные люди, не взял наши души Господь, G B7 Em Мне нужна твоя мертвая плоть. D Am Em Тела наши снова сольются под светом луны, D Am Em Любовь наша вечна, друг другу мы сильно нужны, D Am Em Твой череп оскаленный вновь улыбается мне G B7 Em Я буду ласкать тебя нежно при полной луне. Em Над кладбищем снова сияет большая луна, Am Ты не представляешь, как мне ты, родная, нужна, Em Уютно нам в склепе семейном с тобою вдвоем, Am На свет мы с тобой скелетеночка произведем, G B7 Em Будем в склепе валяться втроем. D Am Em Тела наши снова сольются под светом луны, D Am Em Любовь наша вечна, друг другу мы сильно нужны, D Am Em Твой череп оскаленный вновь улыбается мне G B7 Em Я буду ласкать тебя нежно при полной луне. D Am Em Тела наши снова сольются под светом луны, D Am Em Любовь наша вечна, друг другу мы сильно нужны, D Am Em Твой череп оскаленный вновь улыбается мне G B7 Em Я буду ласкать тебя нежно при полной луне. G B7 Em Я буду ласкать тебя нежно при полной луне. G B7 Em Я буду ласкать тебя нежно при полной луне.

amdm.ru

Сектор Газа - Любовь загробная, аккорды для гитары

 D Am Em E|---5--5--5--5--3--2---|-5--5--5--5--3--5-|--7*--------| B|----------------------|------------------|------------| G|----------------------|------------------|------------| D|----------------------|------------------|------------| A|----------------------|------------------|------------| E|----------------------|------------------|------------| D Am Em E|-5--5--5--5--3--2-|-5--5--5--5--3--2-|-3*--2--3--2--0*-| B|------------------|------------------|-----------------| G|------------------|------------------|-----------------| D|------------------|------------------|-----------------| A|------------------|------------------|-----------------| E|------------------|------------------|-----------------| D Am Em E|---5--5--5--5--3--2---|-5--5--5--5--3--5-|--7*--------| B|----------------------|------------------|------------| G|----------------------|------------------|------------| D|----------------------|------------------|------------| A|----------------------|------------------|------------| E|----------------------|------------------|------------| G B7 Em E|-3--3--3--3--3--3-|-2--2--2--2--2--0-------|------|------| B|------------------|------------------------|------|------| G|------------------|------------------------|------|------| D|------------------|------------------------|------|------| A|------------------|------------------------|------|------| E|------------------|------------------------|------|------| Em Опять с нетерпением жду я конец октября, Am Конец октября с нетерпением жду я не зря - Em Опять с тридцать первого ночью ко мне ты придешь, Am Смешается снова смертельно-любовная дрожь, G B7 Em Ты придешь, из могилы придешь. D Am Em Тела наши снова сольются под светом луны, D Am Em Любовь наша вечна, друг другу мы сильно нужны, D Am Em Твой череп оскаленный вновь улыбается мне, G B7 Em Я буду ласкать тебя нежно при полной луне. 

amdm.ru

Табулатура: Сектор Газа - Любовь загробная (соло)


D Am Em
 
 E ---|---5--5--5--5--3--2---|-5--5--5--5--3--5-|--7*--------|
 B ---|----------------------|------------------|------------|
 G ---|----------------------|------------------|------------|
 D ---|----------------------|------------------|------------|
 A ---|----------------------|------------------|------------|
 E ---|----------------------|------------------|------------|
 
 D Am Em
 
 E ---|-5--5--5--5--3--2-|-5--5--5--5--3--2-|-3*--2--3--2--0*---
 B ---|------------------|------------------|------------------
 G ---|------------------|------------------|------------------
 D ---|------------------|------------------|------------------
 A ---|------------------|------------------|------------------
 E ---|------------------|------------------|------------------
 
 
 D Am Em
 
 E ---|---5--5--5--5--3--2---|-5--5--5--5--3--5-|--7*--------|
 B ---|----------------------|------------------|------------|
 G ---|----------------------|------------------|------------|
 D ---|----------------------|------------------|------------|
 A ---|----------------------|------------------|------------|
 E ---|----------------------|------------------|------------|
 
 G B7 Em 
 
 E --|-3--3--3--3--3--3-|-2--2--2--2--2--0-------|------|------|
 B --|------------------|------------------------|------|------|
 G --|------------------|------------------------|------|------|
 D --|------------------|------------------------|------|------|
 A --|------------------|------------------------|------|------|
 E --|------------------|------------------------|------|------|
 
 
 Em 
 Опять с нетерпением жду я конец октября, 
 Am 
 Конец октября с нетерпением жду я не зря - 
 Em
 Опять с тридцать первого ночью ко мне ты придешь, 
 Am
 Смешается снова смертельно-любовная дрожь, 
 G B7 Em
 Ты придешь, из могилы придешь. 
 
 D Am Em
 Тела наши снова сольются под светом луны, 
 D Am Em
 Любовь наша вечна, друг другу мы сильно нужны,
 D Am Em
 Твой череп оскаленный вновь улыбается мне, 
 G B7 Em 
 Я буду ласкать тебя нежно при полной луне. 
 
 * этот значок означает, что нота должна звучать 3-4 секунды.
 
 Качество подбора гарантирую.
 Никита Кожевников.
 Санкт-Петербург. 

sing-my-song.com

Сектор Газа - Любовь загробная, аккорды для гитары

Am Опять с нетерпением жду я конец октября, Dm Конец октября с нетерпением жду я не зря - Am Опять с тридцать первого ночью ко мне ты придешь, Dm Смешается снова смертельно-любовная дрожь С E Am Ты придешь, из могилы придешь. Dm G Am Тела наши снова сольются под светом луны, Dm G Am Любовь наша вечна, друг другу мы сильно нужны, Dm G Am Твой череп оскаленный вновь улыбается мне, C E Am Я буду ласкать тебя нежно при полной луне. Am Давно умерла ты для всех, только не для меня, Dm Пусть труп твой прекрасный за несколько лет провонял, Dm Червями изъедена наша прогнившая плоть, Dm Мы - грешные люди, не взял наши души Господь, С E Am Мне нужна твоя мертвая плоть. Dm G Am Тела наши снова сольются под светом луны, Dm G Am Любовь наша вечна, друг другу мы сильно нужны, Dm G Am Твой череп оскаленный вновь улыбается мне, C E Am Я буду ласкать тебя нежно при полной луне. Am Над кладбищем снова сияет большая луна, Dm Ты не представляешь, как мне ты, родная, нужна, Am Уютно нам в склепе семейном с тобою вдвоем, Dm На свет мы с тобой скелетеночка произведем, С E Am Будем в склепе валяться втроем. Dm G Am Тела наши снова сольются под светом луны, Dm G Am Любовь наша вечна, друг другу мы сильно нужны, Dm G Am Твой череп оскаленный вновь улыбается мне, C E Am Я буду ласкать тебя нежно при полной луне. 

amdm.ru

Любовь загробная - Сектор Газа слушать онлайн. Аккорды Текст

Сектор Газа – Любовь загробная, Аккорды

 Em Опять с нетерпением жду я конец октября, Am Конец октября с нетерпением жду я не зря - Em Опять с тридцать первого ночью ко мне ты придешь, Am Смешается снова смертельно-любовная дрожь, G B7 Em Ты придешь, из могилы придешь. D Am Em Тела наши снова сольются под светом луны, D Am Em Любовь наша вечна, друг другу мы сильно нужны, D Am Em Твой череп оскаленный вновь улыбается мне G B7 Em Я буду ласкать тебя нежно при полной луне. Em Давно умерла ты для всех, только не для меня, Am Пусть труп твой прекрасный за несколько лет провонял, Em Червями изъедена наша прогнившая плоть, Am Мы - грешные люди, не взял наши души Господь, G B7 Em Мне нужна твоя мертвая плоть. D Am Em Тела наши снова сольются под светом луны, D Am Em Любовь наша вечна, друг другу мы сильно нужны, D Am Em Твой череп оскаленный вновь улыбается мне G B7 Em Я буду ласкать тебя нежно при полной луне. Em Над кладбищем снова сияет большая луна, Am Ты не представляешь, как мне ты, родная, нужна, Em Уютно нам в склепе семейном с тобою вдвоем, Am На свет мы с тобой скелетеночка произведем, G B7 Em Будем в склепе валяться втроем. D Am Em Тела наши снова сольются под светом луны, D Am Em Любовь наша вечна, друг другу мы сильно нужны, D Am Em Твой череп оскаленный вновь улыбается мне G B7 Em Я буду ласкать тебя нежно при полной луне. D Am Em Тела наши снова сольются под светом луны, D Am Em Любовь наша вечна, друг другу мы сильно нужны, D Am Em Твой череп оскаленный вновь улыбается мне G B7 Em Я буду ласкать тебя нежно при полной луне. G B7 Em Я буду ласкать тебя нежно при полной луне. G B7 Em Я буду ласкать тебя нежно при полной луне.
Популярные песни:

Поделись с друзьями

sektorgaza.su

Сектор Газа - Любовь загробная, аккорды для гитары

Am Опять с нетерпением жду я конец октября, Dm Конец октября с нетерпением жду я не зря - Am Опять с тридцать первого ночью ко мне ты придешь, Dm Смешается снова смертельно-любовная дрожь, F E Am Ты придешь, из могилы придешь. G Dm Am Тела наши снова сольются под светом луны, G Dm Am Любовь наша вечна, друг другу мы сильно нужны, G Dm Am Твой череп оскаленный вновь улыбается мне, F E Am Я буду ласкать тебя нежно при полной луне. Am Давно умерла ты для всех, только не для меня, Dm Пусть труп твой прекрасный за несколько лет провонял, Am Червями изъедена наша прогнившая плоть, Dm Мы - грешные люди, не взял наши души Господь, F E Am Мне нужна твоя мертвая плоть. G Dm Am Тела наши снова сольются под светом луны, G Dm Am Любовь наша вечна, друг другу мы сильно нужны, G Dm Am Твой череп оскаленный вновь улыбается мне, F E Am Я буду ласкать тебя нежно при полной луне. Am Над кладбищем снова сияет большая луна, Dm Ты не представляешь, как мне ты, родная, нужна, Am Уютно нам в склепе семейном с тобою вдвоем, Dm На свет мы с тобой скелетеночка произведем, F E Am Будем в склепе валяться втроем. G Dm Am Тела наши снова сольются под светом луны, G Dm Am Любовь наша вечна, друг другу мы сильно нужны, G Dm Am Твой череп оскаленный вновь улыбается мне, F E Am Я буду ласкать тебя нежно при полной луне. G Dm Am Тела наши снова сольются под светом луны, G Dm Am Любовь наша вечна, друг другу мы сильно нужны, G Dm Am Твой череп оскаленный вновь улыбается мне, F E Am Я буду ласкать тебя нежно при полной луне. F E Am Я буду ласкать тебя нежно при полной луне. F E Am Я буду ласкать тебя нежно при полной луне. 

amdm.ru

Аккорды Сектор Газа - Любовь загробная (3), табы, текст песни | Аккорды Любовь загробная (3)

Главная > Аккорды > С > Сектор Газа


Подбор прислал: gitaristu.ru

 1)-0--5-5-5-5----3--2-----5-5-5-5---3-2-7*----/-0---5-5-5-5---3--2----5-5-5-5---3-2-3--2-0---
 1)-0--5-5-5-5----3--2-----5-5-5-5---3-2-7*----/-0---3-3-3-3-2-0-2-2-2-2-3-2-0-0----
 1)---3-2-0—3-2-0—3-2-0—3-2-0
 Em
 Опять с нетерпением жду я конец октября
 Em Am
 Конец октября с нетерпением жду я не зря-а-а
 Em 
 Опять с тридцать первого ночью ко мне ты приде-о-шь
 Em Am
 Сближается снова смертельно любовная дро-ожь
 Am C Em
 Ты придешь из могилы придешь
 
 Припев:
 Am C Em
 Тела наши снова сольются под светом луны-ы
 Любовь наша вечна друг другу мы сильно нужны-ы-ы
 Твой череп оскаленный вновь улыбается мне-е-е
 Я буду ласкать тебя нежно при полной луне-е-е
 
 Давно умерла ты для всех то не для меня-а-а
 Пусть дух твой прекрасный за несколько лет провоня-а-ал
 Червями изъедена наша прогнившая пло-оть 
 Мы грешные люди не взял наши души госпо-одь
 Мне нужна твоя мертвая пло-оть
 
 Припев:
 
 Тела наши снова сольются под светом луны-ы
 Любовь наша вечна друг другу мы сильно нужны-ы-ы
 Твой череп оскаленный вновь улыбается мне-е-е
 Я буду ласкать тебя нежно при полной луне-е
 
 Проигрыш
 
 Над кладбищем снова сияет большая луна-а-а
 Ты не представляешь как мне ты родная нужна-а
 Уютно нам в склепе семейном с тобою вдво-оем
 На свет мы с тобой звереденочка произведе-ом
 Будем в склепе валяться я втроем
 
 Припев:
 Тела наши снова сольются под светом луны-ы-ы
 Любовь наша вечна друг другу мы сильно нужны-ы
 Твой череп оскаленный вновь улыбается мне-е-е
 Я буду ласкать тебя нежно при полной луне-е
 
 (Играется первое соло вместе со второй частью)
 
 Тела наши снова сольются под светом луны-ы-ы
 Любовь наша вечна друг другу мы сильно нужны-ы-ы
 Твой череп оскаленный вновь улыбается мне-е-е
 Я буду ласкать тебя нежно при полной луне -3раза
 
Расскажи друзьям!

Популярное на этой неделе:


www.gitaristu.ru

Любовь загробная Сектор Газа Аккорды, тексты песен, видео.

 
 D Am Em
 E ---|---5--5--5--5--3--2---|-5--5--5--5--3--5-|--7*--------|
 B ---|----------------------|------------------|------------|
 G ---|----------------------|------------------|------------|
 D ---|----------------------|------------------|------------|
 A ---|----------------------|------------------|------------|
 E ---|----------------------|------------------|------------|
 
 D Am Em
 E ---|-5--5--5--5--3--2-|-5--5--5--5--3--2-|-3*--2--3--2--0*--
 B ---|------------------|------------------|------------------
 G ---|------------------|------------------|------------------
 D ---|------------------|------------------|------------------
 A ---|------------------|------------------|------------------
 E ---|------------------|------------------|------------------
 
 D Am Em
 E ---|---5--5--5--5--3--2---|-5--5--5--5--3--5-|--7*--------|
 B ---|----------------------|------------------|------------|
 G ---|----------------------|------------------|------------|
 D ---|----------------------|------------------|------------|
 A ---|----------------------|------------------|------------|
 E ---|----------------------|------------------|------------|
 
 G B7 Em
 E --|-3--3--3--3--3--3-|-2--2--2--2--2--0-------|------|------|
 B --|------------------|------------------------|------|------|
 G --|------------------|------------------------|------|------|
 D --|------------------|------------------------|------|------|
 A --|------------------|------------------------|------|------|
 E --|------------------|------------------------|------|------|
 
 Em
 Опять с нетерпением жду я конец октября,
 Am
 Конец октября с нетерпением жду я не зря -
 Em
 Опять с тридцать первого ночью ко мне ты придешь,
 Am
 Смешается снова смертельно-любовная дрожь,
 G B7 Em
 Ты придешь, из могилы придешь.
 D Am Em
 Тела наши снова сольются под светом луны,
 D Am Em
 Любовь наша вечна, друг другу мы сильно нужны,
 D Am Em
 Твой череп оскаленный вновь улыбается мне,
 G B7 Em
 Я буду ласкать тебя нежно при полной луне.
 
 * этот значок означает, что нота должна звучать 3-4 секунды.

Видео для песни "Любовь загробная":

pesnigitara.com

КАК ИГРАТЬ СЕКТОР-ГАЗА"ЛЮБОВЬ ЗАГРОБНАЯ"(УРОК НА ГИТАРЕ)

КАК ИГРАТЬ СЕКТОР-ГАЗА"ЛЮБОВЬ ЗАГРОБНАЯ"(УРОК НА ГИТАРЕ) Подробнее

Сектор Газа - Любовь загробная (Аккорды, урок на гитаре) Подробнее

СЕКТОР ГАЗА - "ЛЮБОВЬ ЗАГРОБНАЯ". Аккорды и разбор | Песни под гитару - Nagitaru.ru Подробнее

Уроки гитары.Сектор газа-Любовь раскумаренная Подробнее

Укус вампира - СЕКТОР ГАЗА - Легкие аккорды в Em и разбор | Песни под гитару - Nagitaru.ru Подробнее

Сектор Газа ► Любовь загробная (GUITAR COVER) Подробнее

Как играть: СЕКТОР ГАЗА - ЛИРИКА на гитаре (Полный разбор песни, аккорды, бой) Подробнее

любовь загробная ,начальное соло( разбор ) Подробнее

Сектор Газа - Любовь Загробная ( Кавер-Версия ) Подробнее

Сектор Газа - "Любовь загробная". Аккорды на гитаре, кавер Подробнее

Как играть СЕКТОР ГАЗА - ЛИРИКА / Разбор/Аккорды/Табы Подробнее

Сектор газа- Загробная любовь. Кавер cover Подробнее

Сектор Газа - Туман - Разбор, Аккорды на гитаре Подробнее

putinizm.ru


Смотрите также