Как играть полковнику никто не пишет


Би 2 - ПОЛКОВНИКУ НИКТО НЕ ПИШЕТ, аккорды, на гитаре

Наверняка все уже видели нашумевший российский фильм «Брат — 1, 2» состоящий из неплохих саундтреков именитых рок-групп.«Полковнику никто не пишет» — песня   Левы из «БИ-2»   достойно вписалась в кино-сюжет.
На гитаре сыграть ее будет намного легче в тональности Em, для тех, кто пока что не владеет приемом баррэ. Гитарный бой — довольно простой.

Рекомендуемый гит. бой первого куплета:

Вниз-вниз-вниз(в акценте)—вниз- и повтор…

  • бой играется одиночными штрихами преимущественно по верхним струнам
  • проигрывается по 4 раза на каждом аккорде

С припева и до конца песни можно перейти на такой бой:

Вниз-вниз-вниз-вниз(быстро)-вверх(быстро)- и заново…

Если зажать каподастр на 3-м ладу и играть в тональности Em, то звучание будет как в оригинальной Gm. Плюсом ко всему избавляемся от приема баррэ

«Полковнику никто не пишет»

Табы вступления:

Проигрыш:

С, D, H7 (H) | С, D |
Em, C, Am, H7 (H)

Пpипев: 3 pаза.

Табы для второй гитары в припевах:

Табы для второй гитары в проигрыше (соло):

Дальше играются ноты вступления…

Спойлер

Табы вступления:

Проигрыш:

Eb, F, D | Eb, F |
Gm, Eb, Cm, D

Пpипев: 3 pаза.

Чтобы получить остальные табы для данной тональности, нужно повысить на 1,5 тона (3 лада) вышеописанные табы

[свернуть]

Видео (кавер, аппликатуры аккордов в Em и разбор вступления, гит. боя):

«МОЙ РОК-Н-РОЛЛ» (Би-2)
«СЕРЕБРО»
«СНЕГ НА РОЖДЕСТВО»
«ВОЛКИ»

nagitaru.ru

2 - Полковнику никто не пишет, аккорды для гитары

Intro: 1|--6------5-------------------6------5---------| 2|-------------------6-4--4-6-------------------| 3|----7-7---7-7--7---------------8-8--8-8--8-7--| 4|----------------------------------------------| 5|----------------------------------------------| 6|----------------------------------------------| G Большие города D# Пустые поезда C Ни берега, ни дна D Всё начинать сначала G Холодная война D# И время как вода C Он не сошел с ума D Ты ничего не знала Припев: G D# Полковнику никто не пишет 1|--------------------------------------| 2|--------------------------------------| 3|-----5-3------------------------------| 4|---5-----5------------------8-8--8-8--| 5|-5---------5--5-6-5--8-6--6-6--6-6----| 6|--------------------------------------| G F Полковника никто не ждет 1|-----------------------------6-6-5--6-6-5--| 2|-------------------------------------------| 3|-----5-3-----------------------------------| 4|---5-----5---------------------------------| 5|-5---------5--5-6-5--8-6-------------------| 6|-------------------------------------------| G На линии огня D# Пустые города C В которых никогда D Ты раньше не бывала G И рвутся поезда D# На тонкие слова C Он не сошел с ума D Ты ничего не знала Solo: 1|-----6----5--6-8-10-----6-----5--6-8-6------6----5--6-8-10---| 2|-4-6--4-6---4-6--8--4-6--4-6----4-6-6--4-6--4-6---4-6--8-10--| 3|-------------------------------------------------------------| 4|-------------------------------------------------------------| 5|-------------------------------------------------------------| 6|-------------------------------------------------------------| 1|--6------5-------------------6------5------------------------| 2|-------------------6-4--4-6----------------------------------| 3|----7-7---7-7--7---------------8-8--8-8--8-7(slide to 19)----| 4|-------------------------------------------------------------| 5|-------------------------------------------------------------| 6|-------------------------------------------------------------| Припев: G D# Полковнику никто не пишет 1|--------------------------------------| 2|--------------------------------------| 3|-----5-3------------------------------| 4|---5-----5------------------8-8--8-8--| 5|-5---------5--5-6-5--8-6--6-6--6-6----| 6|--------------------------------------| G F Полковника никто не ждет 1|-----------------------------6-6-5--6-6-5--| 2|-------------------------------------------| 3|-----5-3-----------------------------------| 4|---5-----5---------------------------------| 5|-5---------5--5-6-5--8-6-------------------| 6|-------------------------------------------| Solo: 1|--------------------------------------------| 2|--------------------------------------------| 3|--------------------------------------------| 4|-------------------10--------------10-------| 5|-----12-13-12-13------12-13-12-13-----------| 6|--10-----------------10---------------------| 1|--------------------------------------------| 2|--------------------------------------------| 3|--------------------------------------------| x4 4|-----------10----------15-13-12-10-12-------| 5|----12-13----13-12---------------------12---| 6|-10-----------------------------------------|

amdm.ru

2 - Полковнику никто не пишет, аккорды для гитары

Боль-ши-е го-ро-да Пус-тые по-ез-да 1|-------------------------------------------------------------| 2|-------------------------------------------------------------| 3|------------------------------------------------8------------| 4|------------------5-----------------------------8------------| 5|-----6--5--3------5-----------------------------6------------| 6|--------------6---3------------------------------------------| Ни бе-ре-га ни дна Все на-чи-нать сна-ча-ла 1|-------------------------------------------------------------| 2|-------------------------------------------------------------| 3|-----------------5------------------------------7------------| 4|-----------------5------------------------------7------------| 5|-----------------3------------------------------5------------| 6|-------------------------------------------------------------| Холодная война. И время, как вода 1|-------------------------------------------------------------| 2|-------------------------------------------------------------| 3|------------------------------------------------8------------| 4|------------------5-----------------------------8------------| 5|------------------5-----------------------------6------------| 6|------------------3------------------------------------------| Он не сошел с ума. Ты ничего не знала. 1|-------------------------------------------------------------| 2|-------------------------------------------------------------| 3|-----------------5------------------------------7------------| 4|-----------------5------------------------------7------------| 5|-----------------3------------------------------5------------| 6|-------------------------------------------------------------| Припев: Пол-ков-ни-ку ни-кто не пи-шет 1|-------------------------------------------------------------| 2|-------------------------------------------------------------| 3|----------5--3-----------------------------------------------| 4|------5---------5--------------------------------8-8----8-8--| 5|--5-----------------5-----5--6--5------5--8--6---6-6----6-6--| 6|-------------------------------------------------------------| Пол-ков-ни-ка ни-кто не ждет 1|----------------------------------------6-6--5-5--6-6--5-5---| 2|-------------------------------------------------------------| 3|-----------5--3----------------------------------------------| 4|-------5---------5-------------------------------------------| 5|---5-----------------5-----5--6--5---------------------------| 6|-------------------------------------------------------------| (Третий куплет играется глушенным 'арпеджио'): На линии огня Пустые города 1|-------------------------------------------------------------| 2|-------------------------------------------------------------| 3|--------------6-7-6---6-7-6---6-7-6---6-7-6---6-7-6---6-7-6--| 4|------------5-------5-------5-------5-------5-------5--------| 5|-------------------------------------------------------------| 6|-------------------------------------------------------------| В которых никогда Ты раньше не бывал-а 1|-------------------------------------------------------------| 2|--------------------------11---------------------------------| 3|---6-7-6---6-7-6---8-10-8------------8-10-8--------------7---| 4|-5-------5-------8-------------8-8-8-------------------7-----| 5|-----------------------------------------------------5-------| 6|-------------------------------------------------------------| Четвертый куплет: И рвутся поезда На тонкие слова Он не сош- 1|-------------------------------------------------------------| 2|-------------------8------------8------------8------------8--| 3|---------------6-7----7-6---6-7----7-6---6-7----7-6---6-7----| 4|-------------5-------------------------5---------------------| 5|-------------------------------------------------------------| 6|-------------------------------------------------------------| -ел с ума Ты ничего не знала 1|-------------------------------------------------------------| 2|---------------11---------------11---------------------------| 3|--7-6---8-10-8-----------8-10-8------------------------------| 4|------8------------8-8-8-------------7-7---7-7---7-7---7-----| 5|-------------------------------------5-5---5-5---5-5---5-----| 6|-------------------------------------------------------------| Припев: Пол-ков-ни-ку ни-кто не пи-шет 1|-------------------------------------------------------------| 2|-------------------------------------------------------------| 3|----------5--3-----------------------------------------------| 4|------5---------5--------------------------------8-8----8-8--| 5|--5-----------------5-----5--6--5------5--8--6---6-6----6-6--| 6|-------------------------------------------------------------| Пол-ков-ни-ка ни-кто не ждет 1|----------------------------------------6-6--5-5--6-6--5-5---| 2|-------------------------------------------------------------| 3|-----------5--3----------------------------------------------| 4|-------5---------5-------------------------------------------| 5|---5-----------------5-----5--6--5---------------------------| 6|-------------------------------------------------------------| Соло 1 сразу после припева: 1|-----6------5~~~11~13~15------6-----5~~~10~11~10-------------| 2|-4-6----4-6-----11~13~15--4-6---4-6-----10~11~10-------------| 3|-------------------------------------------------------------| 1|-----6------5~~~11~13~15~17[держать до следующей части]------| 2|-4-6----4-6-----11~13~15~17[держать до следующей части]------| 3|-------------------------------------------------------------| Соло 2 после долгой ноты соло 1: 1|-6-------5-----------------6--------6--------5---------------| 2|-----------------6-------6-----------------------------------| 3|---7-7-----7-7-7---8---8--------------7-8------8-8--8--7~19--|

amdm.ru

2 - Полковнику Никто Не Пишет аккорды, бой и перебор в Ам (Am) и других тональностях @ Chorder.ru

Би-2

о жизни несправедливость офицеры Добавить тег
  • Лайк?
  • Тональн.
    ♭ Gm ♯
  • Шрифт
    0
  • Скролл
  • Упростить
[{"name":"intro","text":"E|--6------5-----------|---------6-|--6------5--------|---|\nB|-------------------6-|-4---4-6---|------------------|---|\nG|----7-7----7-7---7---|-----------|----7-8----8-8--8-|-7-|\nD|---------------------|-----------|------------------|---|\nA|---------------------|-----------|------------------|---|\nE|---------------------|-----------|------------------|---|"}]

Аккорды автоматически упрощены для Вашего удобства.

Запомнить мой выбор

Хорошо Вернуть оригинал

@[email protected]
 
 [[куплет|B:DDDD]]
 Gm Cm7
 Большие города, пустые поезда,
 Cm D
 Ни берега, ни дна - все начинать сначала.
 Gm Cm7
 Холодная война и время, как вода.
 Cm D
 Он не сошел с ума - ты ничего не знала.
 
 [[припев]]
 Gm Cm7
 Полковнику никто не пишет,
 Gm F
 Полковника никто не ждет.
 
 [[куплет_2]]
 Gm Cm7
 На линии огня пустые города,
 Cm D
 В которых никогда ты раньше не бывала.
 Gm Cm7
 И рвутся поезда на тонкие слова.
 Cm D
 Он не сошел с ума - ты ничего не знала.
 
 [[припев|X:2]]

chorder.ru

Би-2 - Полковнику никто не пишет: аккорды для гитары, проверенные подборы

  • Аккорды песен
  • ТОП 100
  • Аппликатуры
  • Настройка гитары
Главная → Аккорды 🎸 → Би-2 → Полковнику никто не пишет

Исполнители

  • 25/17
  • 4 апреля
  • 5nizza
  • 7 раса
  • Alai Oli
  • Alekseev
  • Anacondaz
  • Animal ДжаZ
  • Asper X
  • Billy's Band
  • Brainstorm
  • BRUTTO
  • BY Effect
  • Elvis Presley
  • F.P.G.
  • Feduk
  • Flëur
  • IOWA
  • Louna
  • Lumen
  • Nirvana
  • Noize MC
  • Princesse Angine
  • Radio ЧАЧА
  • Rauf & Faik
  • ssshhhiiittt!
  • The Beatles
  • The Hatters
  • The Matrixx
  • The Retuses
  • The Rolling Stones
  • Агата Кристи
  • Адаптация
  • Аквариум
  • Александр Башлачёв
  • Александр Градский
  • Александр Иванов
  • Алексей Глызин
  • Алёна Швец
  • Алиса
  • АлоэВера
  • АнимациЯ
  • Ария
  • АукцЫон
  • Аффинаж
  • Баста
  • Белый орёл
  • Би-2
  • Браво
  • Бранимир
  • Братья Грим
  • Бригада С
  • Булат Окуджава
  • Бумбокс
  • Ва-банкъ
  • Валентин Стрыкало
  • Валерий Меладзе
  • Вася Обломов
  • Високосный Год
  • Владимир Высоцкий
  • Владимир Кузьмин
  • Вопли Видоплясова
  • Воскресение
  • Гарик Сукачев и Неприкасаемые
  • Год Змеи
  • Город 312
  • Градусы
  • Гражданская Оборона
  • Гречка
  • Грибы
  • Григорий Лепс
  • Дай Дарогу!
  • Дайте танк (!)
  • ДДТ
  • Детские песни
  • Евгений Бачурин
  • Егор Натс
  • Ёлка
  • Жуки
  • Звери
  • Земляне
  • Земфира
  • Зимовье Зверей
  • Зоопарк
  • Игорь Растеряев
  • Илья Чёрт
  • Йорш
  • Калинов мост
  • Кино
  • Кирпичи
  • Кис-кис
  • КняZz
  • Коля ROTOFF
  • Конец фильма
  • Константин Ступин
  • Король и Шут
  • Крематорий
  • Кукрыниксы
  • Ленинград
  • Леонид Агутин
  • Леприконсы
  • Лицей
  • ЛСП
  • Любэ
  • Ляпис Трубецкой
  • Маврин
  • МакSим
  • Макс Корж
  • Мара
  • Маша и Медведи
  • Машина Времени
  • Мельница
  • Мимо Вселенной
  • Михаил Боярский
  • Михаил Шуфутинский
  • Михей и Джуманджи
  • Монеточка
  • Моральный кодекс
  • МультFильмы
  • Мумий Тролль
  • Мураками
  • Мурат Насыров
  • Мурат Тхагалегов
  • Муслим Магомаев
  • Наив
  • Найк Борзов
  • Насморк
  • Наутилус Помпилиус
  • Нервы
  • Несчастный случай
  • Ногу Свело!
  • Ночные Снайперы
  • Обе-Рек
  • Океан Ельзи
  • Олег Митяев
  • Ольга Арефьева
  • Операция Пластилин
  • Папин Олимпос
  • Пикник
  • Пилот
  • Пионерлагерь Пыльная Радуга
  • Пицца
  • План Ломоносова
  • Последние танки в Париже
  • Пошлая Молли
  • Ранетки
  • Розенбаум Александр
  • Руки Вверх
  • Свидание
  • Северный флот
  • Секрет
  • Сектор Газа
  • Семён Слепаков
  • Сергей Бабкин
  • Сергей Бобунец
  • Сергей Трофимов
  • СерьГа
  • Скриптонит
  • Слот
  • Смыслов

www.5lad.ru

Табы, бои, видео Би-2 - Полковнику никто не пишет. Версия 2

Боль-ши-е го-ро-да Пус-тые по-ез-да 1|-------------------------------------------------------------| 2|-------------------------------------------------------------| 3|------------------------------------------------8------------| 4|------------------5-----------------------------8------------| 5|-----6--5--3------5-----------------------------6------------| 6|--------------6---3------------------------------------------| Ни бе-ре-га ни дна Все на-чи-нать сна-ча-ла 1|-------------------------------------------------------------| 2|-------------------------------------------------------------| 3|-----------------5------------------------------7------------| 4|-----------------5------------------------------7------------| 5|-----------------3------------------------------5------------| 6|-------------------------------------------------------------| Второй куплет аналогично первому, но без вступления. Холодная война. И время, как вода Он не сошел с ума. Ты ничего не знала. Припев: Пол-ков-ни-ку ни-кто не пи-шет 1|-------------------------------------------------------------| 2|-------------------------------------------------------------| 3|----------5--3-----------------------------------------------| 4|------5---------5--------------------------------8-8----8-8--| 5|--5-----------------5-----5--6--5------5--8--6---6-6----6-6--| 6|-------------------------------------------------------------| Пол-ков-ни-ка ни-кто не ждет 1|----------------------------------------6-6--5-5--6-6--5-5---| 2|-------------------------------------------------------------| 3|-----------5--3----------------------------------------------| 4|-------5---------5-------------------------------------------| 5|---5-----------------5-----5--6--5---------------------------| 6|-------------------------------------------------------------| Третий куплет играется глушенным "арпеджио" На линии огня Пустые города 1|-------------------------------------------------------------| 2|-------------------------------------------------------------| 3|--------------6-7-6---6-7-6---6-7-6---6-7-6---6-7-6---6-7-6--| 4|------------5-------5-------5-------5-------5-------5--------| 5|-------------------------------------------------------------| 6|-------------------------------------------------------------| В которых никогда Ты раньше не бывал-а 1|-------------------------------------------------------------| 2|--------------------------11---------------------------------| 3|---6-7-6---6-7-6---8-10-8------------8-10-8--------------7---| 4|-5-------5-------8-------------8-8-8-------------------7-----| 5|-----------------------------------------------------5-------| 6|-------------------------------------------------------------| Четвертый куплет И рвутся поезда На тонкие слова Он не сош- 1|-------------------------------------------------------------| 2|-------------------8------------8------------8------------8--| 3|---------------6-7----7-6---6-7----7-6---6-7----7-6---6-7----| 4|-------------5-------------------------5---------------------| 5|-------------------------------------------------------------| 6|-------------------------------------------------------------| -ел с ума Ты ничего не знала 1|-------------------------------------------------------------| 2|---------------11---------------11---------------------------| 3|--7-6---8-10-8-----------8-10-8------------------------------| 4|------8------------8-8-8-------------7-7---7-7---7-7---7-----| 5|-------------------------------------5-5---5-5---5-5---5-----| 6|-------------------------------------------------------------| Припев. Соло1 сразу после припева 1|-----6------5~~~11~13~15------6-----5~~~10~11~10-------------| 2|-4-6----4-6-----11~13~15--4-6---4-6-----10~11~10-------------| 3|-------------------------------------------------------------| ~ это скольжение 1|-----6------5~~~11~13~15~17[держать до следующей части]------| 2|-4-6----4-6-----11~13~15~17[держать до следующей части]------| 3|-------------------------------------------------------------| Соло2 после долгой ноты соло1 1|-6-------5-----------------6--------6--------5---------------| 2|-----------------6-------6-----------------------------------| 3|---7-7-----7-7-7---8---8--------------7-8------8-8--8--7~19--|

soldiez.com

Би-2 – Полковнику никто не пишет – как играть на пианино, простой бесплатный урок.

Би-2 – Полковнику никто не пишет – как играть на пианино, простой бесплатный урок.

Мобильные браузеры пока еще не особо справляются с воспроизведением нескольких звуков. Мы хотим сделать приложение, как только найдем ресурсы. Как минимум пошагово вы можете проиграть мелодию.

Би-2 — Полковнику никто не пишет

Евгений Черняков
Идея, дизайн, программирование, UI, UX, звуки.
Олег Кузьменко
Программирование, UX.

Особая благодарность Томми Монтгомери за его PHP MIDI Parser, Александру Косюку за ценные советы, а также Васе Обломову за песню “Еду в Магадан”, которая, как ни странно, вдохновила нас на создание этого проекта.

Нажмите кнопку воспроизведения, чтобы услышать мелодию и узнать, как ее играть. Поставьте на паузу и стрелками на экране или клавиатуре просматривайте пошагово. Зацикливайте как всю мелодию, так и фрагмент, если требуется.

Главная цель «Пианизатора» не обучить исполнению всего произведения (иногда это нереально сделать лишь на пианино), а помочь новичку быстро преодолеть страх перед инструментом и избавить его от скучных и неинтересных уроков (у нас тут рок-н-роллы и рейвы). Буквально научиться играть мелодию одним пальцем.

Поэтому здесь собраны наиболее яркие фрагменты известных композиций. Сперва мы размещали какой-то самый-самый момент, а в дальнейшем стали добавлять максимально возможное число частей. Если имеющегося фрагмента вам недостаточно или вы хотите разучить мелодию, которой здесь еще нет, то смело пишите в наших пабликах, попробуем подготовить уроки.

Драйвового вам обучения!

Есть приложение под Андроид, для IOS в процессе разработки. Также скоро будет приложение — расширенная версия для игры на 2 руки полных произведений.

Установите приложение, это бесплатно,
и удобней сайта

pianizator.ru

Табулатура: Би-2 - Полковнику никто не пишет #26542


Песня расписана полностью для двух гитар.
 Вступление:
 
 E|------|--6------------------|--5-------------------|-------------------6--|
 B|------|---------------------|-----------------6----|--4----------4h-6-----|
 G|------|-------7--7----------|-------7--7-----------|----------------------|
 D|------|---------------------|----------------------|----------------------|
 A|------|---------------------|----------------------|----------------------|
 E|------|---------------------|----------------------|----------------------|
 
 
 
 -----6------------|--5------------------|---------------------|
 ------------------|---------------------|---------------------|
 ---------7h-8-----|-------8--8----------|-------7-------------|
 ------------------|---------------------|---------------------|
 ------------------|---------------------|---------------------|
 ------------------|---------------------|---------------------|
 
 Часть 1) 
 Лёва - Distortion guitar: 
 Большие города.... 
 --------------------||---------------------------|--------------------------|
 --------------------||---------------------------|--------------------------|
 --------------------||*--------------------------|--------------------------|
 --------------------||*--------5-----------5-----|--------5-----------5-----|
 --------------------||---5--5--5--5--5--5--5--5--|--5--5--5--5--5--5--5--5--|
 --------------10/---||---3--3--3--3--3--3--3--3--|--3--3--3--3--3--3--3--3--|
 
 
 
 --------------------------|--------------------------|
 --------------------------|--------------------------|
 --------8-----------8-----|--------8-----------8-----|
 --8--8--8--8--8--8--8--8--|--8--8--8--8--8--8--8--8--|
 --6--6--6--6--6--6--6--6--|--6--6--6--6--6--6--6--6--|
 --------------------------|--------------------------|
 
 
 
 --------------------------|--------------------------|
 --------------------------|--------------------------|
 --------5-----------5-----|--------5-----------5-----|
 --5--5--5--5--5--5--5--5--|--5--5--5--5--5--5--5--5--|
 --3--3--3--3--3--3--3--3--|--3--3--3--3--3--3--3--3--|
 --------------------------|--------------------------|
 
 
 
 --------------------------|--------------------------|
 --------------------------|--------------------------|
 --------7-----------7-----|--------7-----------7-----|
 --7--7--7--7--7--7--7--7--|--7--7--7--7--7--7--7--7--|
 --5--5--5--5--5--5--5--5--|--5--5--5--5--5--5--5--5--|
 --------------------------|--------------------------|
 
 
 
 --------------------------|--------------------------|
 --------------------------|--------------------------|
 --------------------------|--------------------------|
 --------5-----------5-----|--------5-----------5-----|
 --5--5--5--5--5--5--5--5--|--5--5--5--5--5--5--5--5--|
 --3--3--3--3--3--3--3--3--|--3--3--3--3--3--3--3--3--|
 
 
 
 --------------------------|--------------------------|
 --------------------------|--------------------------|
 --------8-----------8-----|--------8-----------8-----|
 --8--8--8--8--8--8--8--8--|--8--8--8--8--8--8--8--8--|
 --6--6--6--6--6--6--6--6--|--6--6--6--6--6--6--6--6--|
 --------------------------|--------------------------|
 
 
 ........ты ничего не 
 --------------------------|--------------------------|
 --------------------------|--------------------------|
 --------5-----------5-----|--------5-----------5-----|
 --5--5--5--5--5--5--5--5--|--5--5--5--5--5--5--5--5--|
 --3--3--3--3--3--3--3--3--|--3--3--3--3--3--3--3--3--|
 --------------------------|--------------------------|
 
 
 знала...... 
 --------------------------|-------------------|
 --------------------------|-------------------|
 --------7-----------7--7--|--7----------------|
 --7--7--7--7--7--7--7--7--|--7----------------|
 --5--5--5--5--5--5--5--5--|--5----------------|
 --------------------------|-------------------|
 
 Часть 2)
 Здесь начинается партия Шура - Overdriven guitar,
 причем Leva продолжает играть ритм. Номера тактов указаны(соответств. такты 
 звучат одновременно)
 Шурик :
 1 2
 ||------------------------|--------------------|
 ||------------------------|--------------------|
 ||---------------5--3-----|--------------------|
 ||------------5--------5--|--------------------|
 ||---------5--------------|--5------------5----|
 ||------------------------|--------------------|
 
 
 3 4 5 
 -----------------------|-------------------|-----------------------|
 -----------------------|-------------------|-----------------------|
 -----------------------|-------------------|--------------5--3-----|
 -----------------------|-------------------|-----------5--------5--|
 --6----5--------6/8----|--6----------------|--------5--------------|
 -----------------------|-------------------|-----------------------|
 
 
 6 7 8 
 --------------------|----------------6----|--6----5--5-------5/6--|
 --------------------|---------------------|-----------------------|
 --------------------|---------------------|-----------------------|
 --------------------|---------------------|-----------------------|
 --5------------5----|--6----5-------------|-----------------------|
 --------------------|---------------------|-----------------------|
 
 
 9 
 --6----5--5----------||
 ---------------------||
 ---------------------||
 ---------------------||
 ---------------------||
 ---------------------||
 
 Лёва:
 1 2 
 ||-------------------|--------------------------|
 ||-------------------|--------------------------|
 ||-------------------|--------------------------|
 ||-------------------|--------5-----------5-----|
 ||-------------------|--5--5--5--5--5--5--5--5--|
 ||-------------------|--3--3--3--3--3--3--3--3--|
 
 
 3 4
 --------------------------|--------------------------|
 --------------------------|--------------------------|
 --------------------------|--------8-----------8-----|
 --------5-----------5-----|--8--8--8--8--8--8--8--8--|
 --5--5--5--5--5--5--5--5--|--6--6--6--6--6--6--6--6--|
 --4--4--3--3--3--3--3--3--|--------------------------|
 
 
 5 6
 --------------------------|--------------------------|
 --------------------------|--------------------------|
 --------8-----------8-----|--------------------------|
 --8--8--8--8--8--8--8--8--|--------5-----------5-----|
 --6--6--6--6--6--6--6--6--|--5--5--5--5--5--5--5--5--|
 --------------------------|--3--3--3--3--3--3--3--3--|
 
 
 7 8 
 --------------------------|--------------------------|
 --------------------------|--------------------------|
 --------------------------|--2--2--2--2--3--3--3--3--|
 --------5-----------5-----|--3--3--3--3--1--1--1--1--|
 --5--5--5--5--5--5--5--5--|--3--3--3--3--3--3--3--3--|
 --4--4--3--3--3--3--3--3--|--1--1--1--1--1--1--1--1--|
 
 
 9 
 --------------------------||
 --------------------------||
 --------------------------||
 --3--3--3--3--3--3--3--3--||
 --3--3--3--3--3--3--3--3--||
 --1--1--1--1--1--1--1--1--||
 
 Теперь повторяются Часть 1,Часть 2.
 
 Часть 3)
 Шурик:
 1 2 3
 ||--------6------------5--|------6----8----10----|--------6------------5--|
 ||--4h-6---------4h-6-----|------4----6----8-----|--4h-6---------4h-6-----|
 ||------------------------|----------------------|------------------------|
 ||------------------------|----------------------|------------------------|
 ||------------------------|----------------------|------------------------|
 ||------------------------|----------------------|------------------------|
 
 4 5 6
 ------6----8----6----|--------6------------5--|------6----8----10----|
 ------4----6----6----|--4h-6---------4h-6-----|------4----6----8-----|
 ---------------------|------------------------|----------------------|
 ---------------------|------------------------|----------------------|
 ---------------------|------------------------|----------------------|
 ---------------------|------------------------|----------------------|
 
 7 8 9
 -12---------------|--6------------------|--5-------------------|
 ------------------|---------------------|-----------------6----|
 ------------------|-------7--7----------|-------7--7-----------|
 ------------------|---------------------|----------------------|
 ------------------|---------------------|----------------------|
 ------------------|---------------------|----------------------|
 
 
 10 11 12 
 -------------------6--|------------------|--6------------------|
 --4----------4h-6-----|------------------|---------------------|
 ----------------------|------------------|-------7h-8----------|
 ----------------------|------------------|---------------------|
 ----------------------|------------------|---------------------|
 ----------------------|------------------|---------------------|
 
 
 13 14 15 
 --5------------------|--------------------|-------------------------||
 ---------------------|--------------------|-------------------------||
 -------8--8----------|--7------------7/---|--19---------------------||
 ---------------------|--------------------|-------------------------||
 ---------------------|--------------------|-------------------------||
 ---------------------|--------------------|-------------------------||
 
 Лёва:
 1 2
 ||--------------------------|--------------------------|
 ||--------------------------|--------------------------|
 ||--------------------------|--------------------8-----|
 ||--------3-----------3-----|--------3-----------8--8--|
 ||--3--3--3--3--3--3--3--3--|--3--3--3--3--3--3--6--6--|
 ||--1--1--1--1--1--1--1--1--|--1--1--1--1--1--1--------|
 
 3 4
 --------------------------|--------------------------|
 --------------------------|--------------------------|
 --------------------------|--------------------8-----|
 --------3-----------3-----|--------3-----------8--8--|
 --3--3--3--3--3--3--3--3--|--3--3--3--3--3--3--6--6--|
 --1--1--1--1--1--1--1--1--|--1--1--1--1--1--1--------|
 
 
 5 6
 --------------------------|--------------------------|
 --------------------------|--------------------------|
 --------------------------|--------------------8-----|
 --------3-----------3-----|--------3-----------8--8--|
 --3--3--3--3--3--3--3--3--|--3--3--3--3--3--3--6--6--|
 --1--1--1--1--1--1--1--1--|--1--1--1--1--1--1--------|
 
 7 8
 --------------------------|--------------------------|
 --------------------------|--------------------------|
 --------7-----------7-----|--------------------------|
 --7--7--7--7--7--7--7--7--|--------5-----------5-----|
 --5--5--5--5--5--5--5--5--|--5--5--5--5--5--5--5--5--|
 --------------------------|--3--3--3--3--3--3--3--3--|
 
 
 9 10
 --------------------------|--------------------------|
 --------------------------|--------------------------|
 --------------------------|--------8-----------8-----|
 --------5-----------5-----|--8--8--8--8--8--8--8--8--|
 --5--5--5--5--5--5--5--5--|--6--6--6--6--6--6--6--6--|
 --3--3--3--3--3--3--3--3--|--------------------------|
 
 11 12
 --------------------------|--------------------------|
 --------------------------|--------------------------|
 --------8-----------8-----|--------5-----------5-----|
 --8--8--8--8--8--8--8--8--|--5--5--5--5--5--5--5--5--|
 --6--6--6--6--6--6--6--6--|--3--3--3--3--3--3--3--3--|
 --------------------------|--------------------------|
 
 
 13 14 15
 --------------------------|--------------------------|-------------------||
 --------------------------|--------------------------|-------------------||
 --------5-----------5-----|--------7-----------7-----|--7----------------||
 --5--5--5--5--5--5--5--5--|--7--7--7--7--7--7--7--7--|--7----------------||
 --3--3--3--3--3--3--3--3--|--5--5--5--5--5--5--5--5--|--5----------------||
 --------------------------|--------------------------|-------------------||
 
 Теперь повторяется Часть 2.
 
 Часть 4)
 Шурик:
 1 2 
 ||-----------------------------|------------------------------|
 ||-----------------------------|------------------------------|
 ||*----------------------------|---5--------------------------|
 ||*-------------7--8----7--8---|------------7--8-----7--8-----|
 ||----------5------------------|--------5---------------------|
 ||-----------------------------|------------------------------|
 
 3 4
 ------------------------------|------------------------------|
 ------------------------------|-----------6------------------|
 ---5------------------5-------|---------------8--7----5--7---|
 --------------7--8--------8---|---7--------------------------|
 ----------5-------------------|------------------------------|
 ------------------------------|------------------------------|
 
 
 5 
 ------------------------------||
 ------------------------------||
 -----------------------------*||
 ---7-------------------------*||
 ------------------------------||
 ------------------------------||
 Лёва:
 
 1 2
 ||--------------------------||--------------------------|
 ||--------------------------||--------------------------|
 ||--------------------------||*-------------------------|
 ||--3--3--3--3--3--3--3--3--||*-------5-----------5-----|
 ||--3--3--3--3--3--3--3--3--||--5--5--5--5--5--5--5--5--|
 ||--1--1--1--1--1--1--1--1--||--3--3--3--3--3--3--3--3--|
 
 
 3 4 
 --------------------------|--------------------------|
 --------------------------|--------------------------|
 --------8-----------8-----|--------5-----------5-----|
 --8--8--8--8--8--8--8--8--|--5--5--5--5--5--5--5--5--|
 --6--6--6--6--6--6--6--6--|--3--3--3--3--3--3--3--3--|
 --------------------------|--------------------------|
 
 
 5 
 --------------------------||----
 --------------------------||----
 --------7-----------7----*||----
 --7--7--7--7--7--7--7--7-*||----
 --5--5--5--5--5--5--5--5--||--5-
 --------------------------||--3- 

sing-my-song.com

2 - Полковнику никто не пишет. Текст песни и аккорды в соль миноре (Gm), табулатуры для Guitar Pro

Песня Би-2 "Полковнику никто не пишет" с аккордами и аппликатурами для гитары и укулеле.

При клике на аккорд он зазвучит! Настройки звукоизвлечения и темпа - ниже в караоке-плеере.
Вступление: Gm | Eb | Cm7 | D7
 
 Gm
 Большие города,
 Eb
 Пустые поезда,
 Cm7
 Ни берега, ни дна,
 D7
 Все начинать сначала.
 
 Холодная война
 И время, как вода,
 Он не сошел с ума,
 Ты ничего не знала.
 
 Припев:
 Gm
 Полковнику никто
 Gm/D Gm/Eb Gm/D Gm7 Eb
 Не пишет.
 Gm Gm/D Gm/Eb Gm/D
 Полковника никто
 Gm Fsus4 F Fsus4 F
 Не ждет.
 
 На линии огня
 Пустые города,
 В которых никогда
 Ты раньше не бывала.
 
 И рвутся поезда
 На тонкие слова,
 Он не сошел с ума,
 Ты ничего не знала.
 
 Припев 2 раза
 
 Полковнику никто
 Не пишет.
 
 Полковника никто...
 

Качество подбора: оригинал, просмотров за неделю: 945, оригинальная тональность: gm.

Поделись аккордами скорей и они к тебе не раз ещё вернутся!

Заметили ошибку? Нажмите сюда

Гитарное караоке

Темп: 405060708090100110120130140150160170180190200, звукоизвлечение:, переменный бас

Это проигрыватель аккордов. Пойте под гитару.. без гитары!
Специальные клавиши:

akkordus.ru

Би-2 – Полковнику никто не пишет - Аккорды, Слова

Би-2 – Полковнику никто не пишет

Аккорды на гитаре, текст песни, тaбы, слова, бой на гитаре
ВИДЕО РАЗБОР песни НА ГИТАРЕ в Родной тональности Соль минор (Gm)

__________________ВСЕ ПЕСНИ ♦ БИ- 2 ♦
     
Вступление:
| Gm | Bmaj7 | D#sus2 | D#sus2 |
| D#sus2 | Cm6 | Dsus4 | Dsus4 |

_                    _Gm                         D#
Большие города, пустые поезда,
_                      _Cm                                     D
Ни берега ни дна, всё начинать с начала.
_                   _Gm                               D#
Холодная война и время, как вода,
_                       _Cm                                 D
Он не сошел с ума, ты ничего не знала.

Припев:
_                        _Gm                       D#
Полковнику никто не пишет,
_                        _Gm             F
Полковника никто не ждет.

2 куплет
На линии огня пустые города,
В которых никогда ты раньше не бывала.
Вернутся поезда на тонкие слова,
Он не сошел с ума, ты ничего не знала.

Припев:
Полковнику никто не пишет,
Полковника никто не ждет.

Проигрыш:
| D# | D# | F | D |
| D# | D# | F | F |
| Gm | Gm | D# | D# |
| Cm | Cm | D | D |

Припев:
Полковнику никто не пишет,
Полковника никто не ждет.
Полковнику никто не пишет,
Полковника никто…

Проигрыш:
| Gm | F | B | D |
| Gm | F | B | D |
| Gm | F | B | D |
| Gm

samouchkanagitare.ru

Аккорды Би 2 - Полковнику никто не пишет, табы, текст песни | Аккорды Полковнику никто не пишет

Главная > Аккорды > Б > Би 2


Подбор прислал: gitaristu.ru

 Полковнику никто не пишет
 
 Clean Guitar: 1|--6------5-------------------6------5----------
 2|-------------------6-4--4-6--------------------
 3|----7-7---7-7--7---------------8-8--8-8--8-7-
 4|------------------------------------------------
 5|------------------------------------------------
 6|------------------------------------------------
 
 N.C. Gm
 Большие гоpода
 D#
 Пyстые поезда
 Cm
 Hи беpега, ни дна
 D(V)
 все начинать сначала
 
 Холодная война
 И вpемя, как вода
 Он не сошел с yма
 Ты ничего не знала...
 
 G(Gm) D#
 Пpипев: Полковникy никто не пишет
 
 1|-------------------------------------------
 2|-------------------------------------------
 3|-----5-3-----------------------------------
 4|---5-----5------------------8-8--8-8-------
 5|-5---------5--5-6-5--8-6--6-6--6-6---------
 6|-------------------------------------------
 
 G(Gm) F
 Полковника никто не ждет
 
 1|-----------------------------6-6-5--6-6-5--
 2|-------------------------------------------
 3|-----5-3-----------------------------------
 4|---5-----5---------------------------------
 5|-5---------5--5-6-5--8-6-------------------
 6|-------------------------------------------
 
 Полковникy никто не пишет
 Полковника никто не ждет...
 
 Hа линии огня
 Пyстые гоpода,
 в котоpых никогда
 Ты pаньше не бывала
 И pвyтся поезда
 Hа тонкие слова
 Он не сошел с yма
 Ты ничего не знала...
 
 Пpипев } 3 pаза.
 
 Solo: 1|-------------------------------------------
 2|-------------------------------------------
 3|-------------------------------------------
 4|------------------10--------------10-------
 5|----12-13-12-13------12-13-12-13-----------
 6|-10-----------------10---------------------
 
 1|-------------------------------------------
 2|-------------------------------------------
 3|-------------------------------------------
 4|-----------10----------15-13-12-10-12------
 5|---12-13----13-12---------------------12---
 6|-10----------------------------------------
 
 *Если комy в лом ставить все эти занyдные баppэ, можно пpосто игpать на
 тон выше: Am F Dm E и т. д.*
 
 -
 
 Песня расписана полностью для двух гитар.
 
 Вступление: [E|------|--6------------------|--5-------------------|-------------------6--|
 B|------|---------------------|-----------------6----|--4----------4h-6-----|
 G|------|-------7--7----------|-------7--7-----------|----------------------|
 D|------|---------------------|----------------------|----------------------|
 A|------|---------------------|----------------------|----------------------|
 E|------|---------------------|----------------------|----------------------|
 
 --------------------|
 
 ------------------|---------------------|---------------------|
 ---------7h-8-----|-------8--8----------|-------7-------------|
 ------------------|---------------------|---------------------|
 ------------------|---------------------|---------------------|
 ------------------|---------------------|---------------------|]
 
 Часть 1)
 
 Лёва - Distortion guitar:
 
 Большие города....
 [--------------------||---------------------------|--------------------------|
 --------------------||---------------------------|--------------------------|
 --------------------||*--------------------------|--------------------------|
 --------------------||*--------5-----------5-----|--------5-----------5-----|
 --------------------||---5--5--5--5--5--5--5--5--|--5--5--5--5--5--5--5--5--|
 --------------10/---||---3--3--3--3--3--3--3--3--|--3--3--3--3--3--3--3--3--|
 
 --------------------------|--------------------------|
 --------------------------|--------------------------|
 --------8-----------8-----|--------8-----------8-----|
 --8--8--8--8--8--8--8--8--|--8--8--8--8--8--8--8--8--|
 --6--6--6--6--6--6--6--6--|--6--6--6--6--6--6--6--6--|
 --------------------------|--------------------------|
 
 --------------------------|--------------------------|
 --------------------------|--------------------------|
 --------5-----------5-----|--------5-----------5-----|
 --5--5--5--5--5--5--5--5--|--5--5--5--5--5--5--5--5--|
 --3--3--3--3--3--3--3--3--|--3--3--3--3--3--3--3--3--|
 --------------------------|--------------------------|
 
 --------------------------|--------------------------|
 --------------------------|--------------------------|
 --------7-----------7-----|--------7-----------7-----|
 --7--7--7--7--7--7--7--7--|--7--7--7--7--7--7--7--7--|
 --5--5--5--5--5--5--5--5--|--5--5--5--5--5--5--5--5--|
 --------------------------|--------------------------|
 
 --------------------------|--------------------------|
 --------------------------|--------------------------|
 --------------------------|--------------------------|
 --------5-----------5-----|--------5-----------5-----|
 --5--5--5--5--5--5--5--5--|--5--5--5--5--5--5--5--5--|
 --3--3--3--3--3--3--3--3--|--3--3--3--3--3--3--3--3--|
 
 --------------------------|--------------------------|
 --------------------------|--------------------------|
 --------8-----------8-----|--------8-----------8-----|
 --8--8--8--8--8--8--8--8--|--8--8--8--8--8--8--8--8--|
 --6--6--6--6--6--6--6--6--|--6--6--6--6--6--6--6--6--|
 --------------------------|--------------------------|]
 
 ........ты ничего не
 
 [--------------------------|--------------------------|
 --------------------------|--------------------------|
 --------5-----------5-----|--------5-----------5-----|
 --5--5--5--5--5--5--5--5--|--5--5--5--5--5--5--5--5--|
 --3--3--3--3--3--3--3--3--|--3--3--3--3--3--3--3--3--|
 --------------------------|--------------------------|]
 
 знала......
 
 [--------------------------|-------------------|
 --------------------------|-------------------|
 --------7-----------7--7--|--7----------------|
 --7--7--7--7--7--7--7--7--|--7----------------|
 --5--5--5--5--5--5--5--5--|--5----------------|
 --------------------------|-------------------|]
 
 Часть 2)
 
 Здесь начинается партия Шура - Overdriven guitar,
 причем Leva продолжает играть ритм. Номера тактов указаны(соответств. такты
 звучат одновременно)
 
 Шурик:
 
 [ 1 2
 ||------------------------|--------------------|
 ||------------------------|--------------------|
 ||---------------5--3-----|--------------------|
 ||------------5--------5--|--------------------|
 ||---------5--------------|--5------------5----|
 ||------------------------|--------------------|
 
 3 4 5
 -----------------------|-------------------|-----------------------|
 -----------------------|-------------------|-----------------------|
 -----------------------|-------------------|--------------5--3-----|
 -----------------------|-------------------|-----------5--------5--|
 --6----5--------6/8----|--6----------------|--------5--------------|
 -----------------------|-------------------|-----------------------|
 
 6 7 8
 --------------------|----------------6----|--6----5--5-------5/6--|
 --------------------|---------------------|-----------------------|
 --------------------|---------------------|-----------------------|
 --------------------|---------------------|-----------------------|
 --5------------5----|--6----5-------------|-----------------------|
 --------------------|---------------------|-----------------------|
 
 9
 --6----5--5----------||
 ---------------------||
 ---------------------||
 ---------------------||
 ---------------------||
 ---------------------||]
 
 Лёва:
 
 [ 1 2
 ||-------------------|--------------------------|
 ||-------------------|--------------------------|
 ||-------------------|--------------------------|
 ||-------------------|--------5-----------5-----|
 ||-------------------|--5--5--5--5--5--5--5--5--|
 ||-------------------|--3--3--3--3--3--3--3--3--|
 
 3 4
 --------------------------|--------------------------|
 --------------------------|--------------------------|
 --------------------------|--------8-----------8-----|
 --------5-----------5-----|--8--8--8--8--8--8--8--8--|
 --5--5--5--5--5--5--5--5--|--6--6--6--6--6--6--6--6--|
 --4--4--3--3--3--3--3--3--|--------------------------|
 
 5 6
 --------------------------|--------------------------|
 --------------------------|--------------------------|
 --------8-----------8-----|--------------------------|
 --8--8--8--8--8--8--8--8--|--------5-----------5-----|
 --6--6--6--6--6--6--6--6--|--5--5--5--5--5--5--5--5--|
 --------------------------|--3--3--3--3--3--3--3--3--|
 
 7 8
 --------------------------|--------------------------|
 --------------------------|--------------------------|
 --------------------------|--2--2--2--2--3--3--3--3--|
 --------5-----------5-----|--3--3--3--3--1--1--1--1--|
 --5--5--5--5--5--5--5--5--|--3--3--3--3--3--3--3--3--|
 --4--4--3--3--3--3--3--3--|--1--1--1--1--1--1--1--1--|
 
 9
 --------------------------||
 --------------------------||
 --------------------------||
 --3--3--3--3--3--3--3--3--||
 --3--3--3--3--3--3--3--3--||
 --1--1--1--1--1--1--1--1--||]
 
 Теперь повторяются Часть 1, Часть 2.
 
 Часть 3)
 
 Шурик:
 
 [ 1 2 3
 ||--------6------------5--|------6----8----10----|--------6------------5--|
 ||--4h-6---------4h-6-----|------4----6----8-----|--4h-6---------4h-6-----|
 ||------------------------|----------------------|------------------------|
 ||------------------------|----------------------|------------------------|
 ||------------------------|----------------------|------------------------|
 ||------------------------|----------------------|------------------------|
 
 4 5 6
 ------6----8----6----|--------6------------5--|------6----8----10----|
 ------4----6----6----|--4h-6---------4h-6-----|------4----6----8-----|
 ---------------------|------------------------|----------------------|
 ---------------------|------------------------|----------------------|
 ---------------------|------------------------|----------------------|
 ---------------------|------------------------|----------------------|
 
 7 8 9
 -12---------------|--6------------------|--5-------------------|
 ------------------|---------------------|-----------------6----|
 ------------------|-------7--7----------|-------7--7-----------|
 ------------------|---------------------|----------------------|
 ------------------|---------------------|----------------------|
 ------------------|---------------------|----------------------|
 
 10 11 12
 -------------------6--|------------------|--6------------------|
 --4----------4h-6-----|------------------|---------------------|
 ----------------------|------------------|-------7h-8----------|
 ----------------------|------------------|---------------------|
 ----------------------|------------------|---------------------|
 ----------------------|------------------|---------------------|
 
 13 14 15
 --5------------------|--------------------|-------------------------||
 ---------------------|--------------------|-------------------------||
 -------8--8----------|--7------------7/---|--19---------------------||
 ---------------------|--------------------|-------------------------||
 ---------------------|--------------------|-------------------------||
 ---------------------|--------------------|-------------------------||]
 
 Лёва:
 [ 1 2
 ||--------------------------|--------------------------|
 ||--------------------------|--------------------------|
 ||--------------------------|--------------------8-----|
 ||--------3-----------3-----|--------3-----------8--8--|
 ||--3--3--3--3--3--3--3--3--|--3--3--3--3--3--3--6--6--|
 ||--1--1--1--1--1--1--1--1--|--1--1--1--1--1--1--------|
 
 3 4
 --------------------------|--------------------------|
 --------------------------|--------------------------|
 --------------------------|--------------------8-----|
 --------3-----------3-----|--------3-----------8--8--|
 --3--3--3--3--3--3--3--3--|--3--3--3--3--3--3--6--6--|
 --1--1--1--1--1--1--1--1--|--1--1--1--1--1--1--------|
 
 5 6
 --------------------------|--------------------------|
 --------------------------|--------------------------|
 --------------------------|--------------------8-----|
 --------3-----------3-----|--------3-----------8--8--|
 --3--3--3--3--3--3--3--3--|--3--3--3--3--3--3--6--6--|
 --1--1--1--1--1--1--1--1--|--1--1--1--1--1--1--------|
 
 7 8
 --------------------------|--------------------------|
 --------------------------|--------------------------|
 --------7-----------7-----|--------------------------|
 --7--7--7--7--7--7--7--7--|--------5-----------5-----|
 --5--5--5--5--5--5--5--5--|--5--5--5--5--5--5--5--5--|
 --------------------------|--3--3--3--3--3--3--3--3--|
 
 9 10
 --------------------------|--------------------------|
 --------------------------|--------------------------|
 --------------------------|--------8-----------8-----|
 --------5-----------5-----|--8--8--8--8--8--8--8--8--|
 --5--5--5--5--5--5--5--5--|--6--6--6--6--6--6--6--6--|
 --3--3--3--3--3--3--3--3--|--------------------------|
 
 11 12
 --------------------------|--------------------------|
 --------------------------|--------------------------|
 --------8-----------8-----|--------5-----------5-----|
 --8--8--8--8--8--8--8--8--|--5--5--5--5--5--5--5--5--|
 --6--6--6--6--6--6--6--6--|--3--3--3--3--3--3--3--3--|
 --------------------------|--------------------------|
 
 13 14 15
 --------------------------|--------------------------|-------------------||
 --------------------------|--------------------------|-------------------||
 --------5-----------5-----|--------7-----------7-----|--7----------------||
 --5--5--5--5--5--5--5--5--|--7--7--7--7--7--7--7--7--|--7----------------||
 --3--3--3--3--3--3--3--3--|--5--5--5--5--5--5--5--5--|--5----------------||
 --------------------------|--------------------------|-------------------||]
 
 Теперь повторяется Часть 2.
 
 Часть 4)
 
 Шурик:
 [ 1 2
 ||-----------------------------|------------------------------|
 ||-----------------------------|------------------------------|
 ||*----------------------------|---5--------------------------|
 ||*-------------7--8----7--8---|------------7--8-----7--8-----|
 ||----------5------------------|--------5---------------------|
 ||-----------------------------|------------------------------|
 
 3 4
 ------------------------------|------------------------------|
 ------------------------------|-----------6------------------|
 ---5------------------5-------|---------------8--7----5--7---|
 --------------7--8--------8---|---7--------------------------|
 ----------5-------------------|------------------------------|
 ------------------------------|------------------------------|
 
 5
 ------------------------------||
 ------------------------------||
 -----------------------------*||
 ---7-------------------------*||
 ------------------------------||
 ------------------------------||]
 
 Лёва:
 
 [ 1 2
 ||--------------------------||--------------------------|
 ||--------------------------||--------------------------|
 ||--------------------------||*-------------------------|
 ||--3--3--3--3--3--3--3--3--||*-------5-----------5-----|
 ||--3--3--3--3--3--3--3--3--||--5--5--5--5--5--5--5--5--|
 ||--1--1--1--1--1--1--1--1--||--3--3--3--3--3--3--3--3--|
 
 3 4
 --------------------------|--------------------------|
 --------------------------|--------------------------|
 --------8-----------8-----|--------5-----------5-----|
 --8--8--8--8--8--8--8--8--|--5--5--5--5--5--5--5--5--|
 --6--6--6--6--6--6--6--6--|--3--3--3--3--3--3--3--3--|
 --------------------------|--------------------------|
 
 5
 --------------------------||----
 --------------------------||----
 --------7-----------7----*||----
 --7--7--7--7--7--7--7--7-*||----
 --5--5--5--5--5--5--5--5--||--5-
 --------------------------||--3-]
 
 -
 
 Intro: 1)--6--5------366--5-------
 2)---33-333644---33-333643-
 
 Gm
 (1) Большие города,
 Cm7
 Пустые поезда.
 Cm
 Ни берега, ни дна,
 D D7
 Всё начинать сначала.
 
 Холодная война
 И время как вода.
 Он не сошел с ума,
 Ты ничего не знала.
 
 Gm Cm7
 Припев: Полковнику никто не пишет,
 Полковника никто не ждёт.
 
 (2) На линии огня
 Пустые города,
 В которых никогда
 Ты раньше не бывала
 
 И рвутся поезда
 На тонкие слова,
 Он не сошёл с ума
 Ты ничего не знала.
 
 Припев
 
 -
 
 1)-6------5------------------6------5----------
 2)------------------6-4--4-6-------------------
 3)---7-7----7-7--7--------------8-8---8-8--8-7-
 
 Gm
 (1) Большие гоpода
 D#
 Пyстые поезда
 Cm
 Hи беpега, ни дна
 D
 Все начинать сначала
 Холодная война
 И вpемя, как вода
 Он не сошел с yма
 Ты ничего не знала...
 
 Gm D#
 Пpипев: Полковникy никто не пишет
 3)-----5-3----------------------------------
 4)---5-----5------------------8-8--8-8------
 5)-5---------5--5-6-5--8-6--6-6--6-6--------
 
 Gm F
 Полковника никто не ждет
 1)-----------------------------6-6-5--6-6-5-
 2)------------------------------------------
 3)-----5-3----------------------------------
 4)---5-----5--------------------------------
 5)-5---------5--5-6-5--8-6------------------
 
 Полковникy никто не пишет
 Полковника никто не ждет...
 
 (2) Hа линии огня
 Пyстые гоpода,
 В котоpых никогда
 Ты pаньше не бывала
 И pвyтся поезда
 Hа тонкие слова
 Он не сошел с yма
 Ты ничего не знала...
 
 Пpипев } 3 pаза
 
 -
 
 Clean Guitar
 1|--6------5-------------------6------5----------
 2|-------------------6-4--4-6--------------------
 3|----7-7---7-7--7---------------8-8--8-8--8-7-
 4|------------------------------------------------
 5|------------------------------------------------
 6|------------------------------------------------
 
 Dist.Guitar
 G
 Большие города
 D#
 Пустые поезда
 C
 Ни берега, ни дна
 D
 Всё начинать сначала
 Холодная война
 И время как вода
 Он не сошел с ума
 Ты ничего не знала
 
 Chorus: G D#
 Полковнику никто не пишет
 1|-------------------------------------
 2|-------------------------------------
 3|-----5-3-----------------------------
 4|---5-----5------------------8-8--8-8
 5|-5---------5--5-6-5--8-6--6-6--6-6
 6|--------------------------------------
 G F
 Полковника никто не ждет
 1|-----------------------------6-6-5--6-6-5
 2|-------------------------------------------
 3|-----5-3----------------------------------
 4|---5-----5--------------------------------
 5|-5---------5--5-6-5--8-6----------------
 6|------------------------------------------
 
 На линии огня
 Пустые города
 В которых никогда
 Ты раньше не бывала
 И рвутся поезда
 На тонкие слова
 Он не сошел с ума
 Ты ничего не знала
 
 Solo (могут быть ошибки)
 1|-----6----5--6-8-10-----6-----5--6-8-6------6----5--6-8-10---
 2|-4-6--4-6---4-6--8--4-6--4-6----4-6-6--4-6--4-6---4-6--8-10
 3|------------------------------------------------------------------
 4|------------------------------------------------------------------
 5|------------------------------------------------------------------
 6|------------------------------------------------------------------
 
 1|--6------5-------------------6------5----------
 2|-------------------6-4--4-6--------------------
 3|----7-7---7-7--7---------------8-8--8-8--8-7(slide to 19)
 4|------------------------------------------------
 5|------------------------------------------------
 6|------------------------------------------------
 
 Chorus
 
 Solo
 1|-------------------------------------------
 2|-------------------------------------------
 3|-------------------------------------------
 4|------------------10--------------10-------
 5|----12-13-12-13------12-13-12-13-----------
 6|-10-----------------10---------------------
 
 1|-------------------------------------------
 2|-------------------------------------------
 3|------------------------------------------- } x4
 4|----------10----------15-13-12-10-12-------
 5|---12-13----13-12---------------------12---
 6-10-----------------------------------------
 
 -
 
 1|--6-------5--------------6---------5------
 2|----------------6-4--4-6------------------
 3|----7-7----7-7--------------8-8--8-8--8-7-
Расскажи друзьям!

Популярное на этой неделе:


www.gitaristu.ru


Смотрите также