Как играть на гитаре туман


Сектор Газа - Туман, аккорды для гитары

Вступление: Dm G | C Am | Dm E | Am Am Dm Было хорошо, было так легко, E Am Но на шею бросили аркан. Am Dm Солнечный огонь атмосферы бронь E Am Пробивал, но не пробил туман. Припев: Dm G C Am И мёртвый месяц еле освещает путь, Dm E Am A7 И звёзды давят нам на грудь, не продохнуть. Dm G И воздух ядовит как ртуть, C Am Нельзя свернуть, нельзя шагнуть, Dm E Am И не пройти нам этот путь в такой туман… Am Dm А куда шагнуть, Бог покажет путь, E Am Бог для нас всегда бесплотный вождь! Am Dm Нас бросает в дрожь, вдруг начался дождь, E Am Нас добьёт конкретный сильный дождь. Припев: Dm G C Am И месяц провоцирует нас на обман, Dm E Am A7 И испарение земли бьёт как дурман. Dm G И каждый пень нам, как капкан, C Am И хлещет кровь из наших ран, Dm E Am И не пройти нам этот путь в такой туман… Проигрыш: Am | Dm | E | Am }x2 Am Dm Всё пошло на сдвиг, наша жизнь как миг, E Am Коротка, как юбка у путан. Am Dm Нам всё нипочём, через левое плечо E Am Плюнем, и пойдём через туман. Припев: Dm G C Am Пусть мёртвый месяц еле освещает путь, Dm E Am A7 Пусть звёзды давят нам на грудь, не продохнуть, Dm G Пусть воздух ядовит, как ртуть. C Am И пусть не видно, где свернуть, Dm E Am Но мы пройдем опасный путь через туман. Dm G C Am Пусть месяц провоцирует нас на обман, Dm E Am A7 Пусть испарение земли бьёт, как дурман, Dm G Пусть каждый пень нам как капкан, C Am Пусть хлещет кровь из наших ран, Dm E Am Но мы пройдём с тобою путь через туман. Dm E Am Но мы пройдём с тобою путь через туман. Dm E Am Но мы пройдём опасный путь через туман.

amdm.ru

Сектор Газа - Туман, аккорды для гитары

1-ая часть припева: 1--8-------------6--------------- 2-8-8-9-9-9-8-6-6-6-8-8^6^8^6-4-- x2 3-------------------------------- А вот это солячек: 1--8-4-4-4-8-6-6-8-10-11-11-11-13-11-8-10-11-13-13-13-11-10-10^11^10-7- 2-8-8------------------------------------------------------------------ 3---------------------------------------------------------------------- Cm Fm G Cm Было хорошо, было так легко, но на шею бросили аркан. Cm Fm G Cm Солнечный огонь атмосферы бронь пробивал, но не пробил туман. Припев: Fm Bb Eb Cm И мертвый месяц еле освещает путь, (1: --8^6^8^6-4--) Fm Bb Eb Cm И воздух давит нам на грудь, не продохнуть, (1: --8^6^8^6-4--) Fm Bb Eb Cm И воздух ядовит как ртуть, нельзя свернуть, нельзя шагнуть, (соло) Fm G Cm И не пройти нам этот путь, такой туман. Cm Fm G А куда шагнуть, Бог покажет путь, Cm Бог для нас всегда бесплотный вождь! Cm Fm G Нас бросает в дрожь, вдруг начался дождь, Cm нас добьёт конкретный сильный дождь. Припев: Fm Bb Eb Cm И месяц провоцирует нас на обман, (1: --8^6^8^6-4--) Fm Bb Eb Cm И испарение земли бьёт как дурман, (1: --8^6^8^6-4--) Fm Bb Eb Cm И каждый пень нам как капкан, и хлещет кровь из наших ран (соло) Fm G Cm И не пройти нам этот путь, такой туман. Проигрыш: Cm | Fm | G | Cm }x2 Cm Fm G Cm Всё пошло на сдвиг, наша жизнь как миг, коротка, как юбка у путан. Cm Fm G Cm Нам всё нипочём, через левое плечо плюнем, и пойдём через туман. Припев: Fm Bb Eb Cm Пусть мёртвый месяц еле освещает путь, Fm Bb Eb Cm Пусть звёзды давят нам на грудь - не продохнуть. Fm Bb Пусть воздух ядовит как ртуть, Eb Cm И пусть не видно, где свернуть, Fm G Cm Но мы пройдём опасный путь через туман! Fm Bb Eb Cm Пусть месяц провоцирует нас на обман, Fm Bb Eb Cm Пусть испарение земли бьёт как дурман. Fm Bb Пусть каждый пень нам, как капкан, Eb Cm Пусть хлещет кровь из наших ран, Fm G Cm Но мы пройдём с тобою путь через туман, Fm G Cm Но мы пройдём с тобою путь через туман, Fm G Cm Но мы пройдём опасный путь через туман

amdm.ru

Сектор Газа - Туман, аккорды для гитары

Em Am Было хорошо, было так легко, B7 Em Но на шею бросили аркан. Em Am Солнечный огонь, атмосферы бронь, пробивал, B7 Em Но не пробил туман. Припев: Am D G И мертвый месяц еле освещает путь, Em Am D G И звезды давят нам на грудь - не продохнуть, Em Am D И воздух ядовит, как ртуть, G Em Нельзя свернуть, нельзя шагнуть, Em Am B7 Em И не пройти нам этот путь в такой туман. Em Am А куда шагнуть - бог покажет путь. B7 Em Бог для нас всегда - бесплотный вождь. Em Am Нас бросает в дрожь, вдруг начался дождь. B7 Em Нас добьет конкретный, сильный дождь. Припев: Am D G И месяц провоцирует нас на обман, Em Am D G И испарение земли бьет как дурман, Em Am D И каждый пень нам как капкан, G Em И хлещет кровь из наших ран, Em Am B7 Em И не пройти нам этот путь в такой туман. Em Am Все пошло на сдвиг, наша жизнь как миг B7 Em Коротка как юбка у путан Em Am Нам все не почем, через левое плечо B7 Em Плюнем и пойдем через туман Припев: Am D G Пусть мертвый месяц еле освещает путь, Em Am D G Пусть звезды давят нам на грудь - не продохнуть, Em Am D Пусть воздух ядовит, как ртуть, G Em И пусть не видно где свернуть Em Am B7 Em Но мы пройдём с тобою путь через туман Am D G Пусть месяц провоцирует нас на обман, Em Am D G Пусть испарение земли бьет как дурман, Em Am D Пусть каждый день нам как капкан, G Em Пусть хлещет кровь из наших ран, Em Am B7 Em Но мы пройдём с тобою путь через туман, Em Am B7 Em Но мы пройдём опасный путь через туман.

amdm.ru

Сектор Газа - Туман аккорды, бой и перебор в Ам (Am) и других тональностях @ Chorder.ru

Сектор Газа

  • Лайк?
  • Тональн.
    ♭ Cm ♯
  • Шрифт
    0
  • Скролл
  • Упростить

Аккорды автоматически упрощены для Вашего удобства.

Запомнить мой выбор

Хорошо Вернуть оригинал

[[куплет|B:DUX-UDUX]]
 Cm Fm
 Было хорошо, было так легко,
 G Cm
 Но на шею бросили аркан.
 Cm Fm
 Солнечный огонь, атмосферы бронь,
 G Cm
 Пробивал, но не пробил туман.
 
 [[припев]]
 Fm A# D#
 И мертвый месяц еле освещает путь,
 Fm A# D#
 И звезды давят нам на грудь - не продохнуть,
 Fm G
 И воздух ядовит, как ртуть,
 D# G#
 Нельзя свернуть, нельзя шагнуть,
 Fm G Cm
 И не пройти нам этот путь в такой туман.
 
 [[куплет_2]]
 Cm Fm
 А куда шагнуть - Бог покажет путь.
 G Cm
 Бог для нас всегда - бесплотный вождь.
 Cm Fm
 Нас бросает в дрожь, вдруг начался дождь.
 G Cm
 Нас добьет конкретный, сильный дождь.
 
 [[припев_2]]
 Fm A# D#
 И месяц провоцирует нас на обман,
 Fm A# D#
 И испарение земли бьет как дурман,
 Fm G
 И каждый день нам как капкан,
 D# G#
 И хлещет кровь из наших ран,
 Fm G Cm
 И не пройти нам этот путь в такой туман.
 
 [[куплет_3]]
 Cm Fm
 Все пошло на сдвиг, наша жизнь как миг
 G Cm
 Коротка как юбка у путан
 Cm Fm
 Нам все не почем, через левое плечо
 G Cm
 Плюнем и пойдем через туман
 
 [[припев_3]]
 Fm A# D#
 Пусть мертвый месяц еле освещает путь,
 Fm A# D#
 Пусть звезды давят нам на грудь - не продохнуть,
 Fm G
 Пусть воздух ядовит, как ртуть,
 D# G#
 И пусть не видно где свернуть
 Fm G Cm
 Но мы пройдем опасный путь, через туман
 
 [[припев_4]]
 Fm A# D#
 Пусть месяц провоцирует нас на обман,
 Fm A# D#
 Пусть испарение земли бьет как дурман,
 Fm G
 Пусть каждый день нам как капкан,
 D# G#
 Пусть хлещет кровь из наших ран,
 Fm G Cm
 Но мы пройдем с тобою путь через туман
 Fm G Cm
 Но мы пройдем с тобою путь через туман
 Fm G Cm
 Но мы пройдем опасный путь через туман

chorder.ru

Простые аккорды — Туман — Аккорды к песне Туман, группа Сектор Газа.

Простые аккорды к песне: Туман
Музыка и слова: Ю.Клинских
с альбома: Сектор Газа «Газовая Атака», 1996

Am Dm Было хорошо, было так легко, E Am Но на шею бросили аркан. Am Dm Солнечный огонь, атмосферы бронь, E Am Пробивал, но не пробил туман. Припев: Am Dm G C И мертвый месяц еле освещает путь, Am Dm G C И звезды давят нам на грудь - не продохнуть, Am Dm G И воздух ядовит, как ртуть, C Am Нельзя свернуть, нельзя шагнуть, Dm E Am И не пройти нам этот путь в такой туман. А куда шагнуть, Бог покажет путь, Бог для нас всегда бесплотный вождь! Нас бросает в дрожь, вдруг начался дождь, Нас добьёт конкретный сильный дождь. Припев: И месяц провоцирует нас на обман, И испарение земли бьёт как дурман. И каждый пень нам, как капкан, И хлещет кровь из наших ран, И не пройти нам этот путь в такой туман… Всё пошло на сдвиг, наша жизнь как миг, Коротка, как юбка у путан. Нам всё нипочём, через левое плечо Плюнем, и пойдём через туман. Припев: Пусть мёртвый месяц еле освещает путь, Пусть звёзды давят нам на грудь - не продохнуть. Пусть воздух ядовит как ртуть, И пусть не видно, где свернуть, Но мы пройдём опасный путь через туман! Пусть месяц провоцирует нас на обман, Пусть испарение земли бьёт как дурман. Пусть каждый пень нам, как капкан, Пусть хлещет кровь из наших ран, Но мы пройдём с тобою путь через туман, Но мы пройдём с тобою путь через туман, Но мы пройдём опасный путь через туман!

Дополнительная информация о группе «Сектор газа»:

«…Ну, это чисто такое местное название в Воронеже, где был рок-клуб, к которому мы принадлежали. Он находился в очень задымлённом районе, и я его так прозвал — «Сектор газа», и мы в этом клубе постоянно играли, а так как я жил там неподалёку в этом районе, группу я назвал также — «Сектор Газа». Чисто местное название, я ведь не думал тогда, что мы так раскрутимся, я думал, что мы поиграемся и на этом всё закончится, как и многие коллективы, тогда первые в 85—87 году, когда открылись рок-клубы, вы помните, было очень много команд довольно-таки интересных…» Юрий Хой (основатель группы)



Аккорды к песням группы Сектор Газа:


www.guitarmusic.ru

Сектор Газа - Туман, аккорды для гитары

 Am G Было хорошо, было так легко, E Am Но на шею бросили аркан. Am G Солнечный огонь, атмасферы бронь, E Am Пробивал, но не пробил туман. Dm G7 C Am И мертвый месяц еле освещает путь, Dm E Am A7 И звезды давят нам на грудь, не продохнуть, Dm G7 C Am И воздух ядовит как ртуть, нельзя свернуть нельзя шагнуть, Dm E Am И не пройти нам этот путь в такой туман. Am G А куда свернуть, бог укажет путь, E Am Бог для нас всегда бесплотный вождь. Am G Нас бросает в дрожь, вдруг начался дождь, E Am Нас добьет конкретный сильный дождь. Dm G7 C Am И месяц провоцирует нас на обман, Dm E Am A7 И испарение земли бьет как дурман, Dm G7 C Am И каждый пень нам как капкан, и хлещет кровь из наших ран, Dm E Am И не пройти нам этот путь в такой туман. Am G Все пошло на сдвиг, наша жизнь как миг, E Am Коротка как юбка у путан. Am G Нам все не почем, через левое плечо, E Am Плюнем и пойдем через туман. Dm G7 C Am Пусть мертвый месяц еле освещает путь, Dm E Am A7 Пусть звезды давят нам на грудь, не продохнуть, Dm G7 C Am Пуст воздух ядовит как ртуть, и пусть невидно где свернуть, Dm E Am Но мы пройдем опасный путь через туман. Dm G7 C Am Пусть месяц провоцирует нас на обман, Dm E Am A7 Пусть испарение земли бьет как дурман, Dm G7 C Am Пуст каждый пень нам как капкан, пусть хлещет кровь из наших ран, Dm E Am Но мы пройдем опастный путь через туман.

amdm.ru

Сектор Газа - Туман, аккорды для гитары

Cm Было хорошо. Fm Было так легко. G Cm Но на шею бросили аркан. Cm Солнечный огонь, Fm Атмосферы бронь G Cm Пробивал, но не пробил туман. Fm A# Eb И мертвый месяц еле освещает путь. Fm A# Eb И звезды давят нам на грудь - не продохнуть! Fm G И воздух ядовит, как ртуть! Eb G# Нельзя свернуть нельзя шагнуть! Fm G Cm И не пройти нам этот путь через туман! Cm А куда шагнуть? Fm Бог покажет путь. G Cm Бог для нас всегда бесплотный вождь! Cm Нас бросает в дрожь, Fm Вдруг начался дождь. G Cm Нас добьет конкретный сильный дождь! Fm A# Eb И месяц провоцирует нас на обман. Fm A# Eb И испарение земли бьет, как дурман. Fm G И каждый пень нам как капкан! Eb G# И хлещет кровь из наших ран! Fm G Cm И не пройти нам этот путь через туман! Cm Все пошло на сдвиг! Fm наша жизнь, как миг! G Cm Коротка, как юбка у путан! Cm Нам все нипочем! Fm Через левое плечо G Cm Плюнем и пойдем через туман! Fm A# Eb Пусть мертвый месяц еле освещает путь. Fm A# Eb Пусть звезды давят нам на грудь - не продохнуть! Fm G Пусть воздух ядовит, как ртуть! Eb G# И пусть не видно, где свернуть! Fm G Cm Но мы пройдем опасный путь через туман! Fm A# Eb Пусть месяц провоцирует нас на обман. Fm A# Eb Пусть испарение земли бьет, как дурман. Fm G Пусть каждый пень нам как капкан! Eb G# Пусть хлещет кровь из наших ран! Fm G Cm Но мы пройдем с тобою путь через туман! Fm G Cm Но мы пройдем с тобою путь через туман! Fm G Cm Но мы пройдем опасный путь через туман!

amdm.ru

Сектор Газа - Туман: аккорды, текст, бой, разбор

«Туман» — это одна из самых лучших композиций советско-российской группы «Сектор Газа».  Она вошла в альбом под названием «Газовая атака», который появился на свет в 1996 году, а годом позже вышел клип.

 

Аккорды к песне Сектор Газа — Туман

Оригинальная тональность Cm (До-минор). В разборе я взял тональность Am (Ля-минор), так как аккорды в ней брать легче.

Аккорды: Am Dm

Аккорды: E C

Аккорды: G


&nbsp

Бой к песне Сектор газа — Туман

Вся песня обыгрывается следующим боем: вниз-глушение-вверх, вверх-глушение-вверх.

 

Текст и аккорды к песне Сектор Газа — Туман

Am Dm
 Было хорошо, было так легко,
 E Am
 Но на шею бросили аркан.
 Am Dm  
 Солнечный огонь, атмасферы бронь,
 E Am
 Пробивал, но не пробил туман.
 
 Dm G C Am
 И мертвый месяц еле освещает путь,
 Dm G C Am
 И звезды давят нам на грудь, не продохнуть,
 Dm G C Am
 И воздух ядовит как ртуть, нельзя свернуть нельзя шагнуть,
 Dm G E Am
 И не пройти нам этот путь в такой туман.
 
 
 А куда свернуть, бог укажет путь,
 Бог для нас всегда бесплотный вождь.
 Нас бросает в дрожь, вдруг начался дождь,
 Нас добьет конкретный сильный дождь.
 
 И месяц провацирует нас на обман,
 И испарение земли бьет как дурман,
 И каждый пень нам как капкан, и хлещет кровь из нашших ран,
 И не пройти нам этот путь в такой туман.
 
 
 Все пошло на сдвиг, наша жизнь как миг,
 Коротка как юбка у путан.
 Нам все не почем, через левое плечо,
 Плюнем и пойдем через туман.
 
 Пусть мертвый месяц еле освещает путь,
 Пусть звезды давят нам на грудь, не продохнуть,
 Пуст воздух ядовит как ртуть, и пусть невидно где свернуть,
 Но мы пройдем опастный путь через туман.
 
 Пусть месяц провацирует нас на обман,
 Пусть испарение земли бьет как дурман,
 Пуст каждый пень нам как капкан, пусть хлещет кровь из нашших ран,
 Но мы пройдем опастный путь через туман.

 

Видео разбор Сектор Газа — Туман

proguitarworld.ru

Сектор газа - Туман, Аккорды, Слова

Сектор газа — Туман

Аккорды на гитаре, текст песни, тaбы, слова, бой на гитаре
Видео разбор песни НА ГИТАРЕ в легкой тональности Ля минор (Аm)
______________ВСЕ ПЕСНИ ♦ СЕКТОР ГАЗА ♦

Вступление:
| Dm | G | C | F | Dm | E7 | Am | Am

Am                      Dm
Было хорошо, было так легко,
E                                         Am
Но на шею бросили аркан.
Am                             Dm
Солнечный огонь, атмосферы бронь,
E                                                  Am
Пробивал, но не пробил туман.

Припев:
_                 _Dm             G               | C |   Am |
И мёртвый месяц еле освещает путь,
Am            Dm                    G                           | C |   Am |
И звёзды давят нам на грудь, не продохнуть.
Am            Dm                G
И воздух ядовит как ртуть,
_                  _C                              F
Нельзя свернуть, нельзя шагнуть,
_            _Dm                   E                          Am
И не пройти нам этот путь в такой туман.

2 куплет
А куда шагнуть, Бог покажет путь,
Бог для нас всегда бесплотный вождь.
Нас бросает в дрожь, вдруг начался дождь,
Нас добьёт конкретный сильный дождь.

Припев:
И месяц провоцирует нас на обман,
И испарение земли бьёт как дурман.
И каждый день нам, как капкан,
И хлещет кровь из наших ран,
И не пройти нам этот путь в такой туман.

Проигрыш:
| Cm | Fm | G | Cm | — 2 раза

3 куплет
Всё пошло на сдвиг, наша жизнь как миг,
Коротка, как юбка у путан.
Нам всё нипочём, через левое плечо,
Плюнем, и пойдём через туман.

Припев:
Пусть мёртвый месяц еле освещает путь,
Пусть звёзды давят нам на грудь, не продохнуть.
Пусть воздух ядовит как ртуть,
И пусть не видно, где свернуть,
Но мы пройдём опасный путь через туман!

Пусть месяц провоцирует нас на обман,
Пусть испарение земли бьёт, как дурман.
Пусть каждый день нам, как капкан,
Пусть хлещет кровь из наших ран,
Но мы пройдём с тобою путь через туман,
_                  _Dm                 E                       Am
Но мы пройдём с тобою путь через туман,
_                  _Dm                 E                       Am
Но мы пройдём опасный путь через туман!

БЕЛАЯ ГОРЯЧКА
БОМЖ
ВАЛЬПУРГИЕВА НОЧЬ
ВЗЯЛ ВИНУ НА СЕБЯ
ВИДАК
ВОЗЛЕ ДОМА ТВОЕГО
ВОЙ НА ЛУНУ
ГУЛЯЙ МУЖИК
ДЕМБЕЛЬ
ДЕМОБИЛИЗАЦИЯ
ДИНАСТИЯ
ДУРАК
ИНСПЕКТОР ДПС
ЗВЕЗДНАЯ БОЛЕЗНЬ
КАЗАЧЬЯ
КОЛХОЗНЫЙ ПАНК
ЛИРИКА (СИГАРЕТА МЕЛЬКАЕТ ВО ТЬМЕ)
LIFE
МЕНТ
НАРКОМАН
НАС ЖДУТ ИЗ ТЕМНОТЫ
НОВОГОДНЯЯ ПЕСНЯ
НОВЫЙ ГОД
НОЧЬ ПЕРЕД РОЖДЕСТВОМ
ОЙ, ТЫ ТРАВУШКА ЗЕЛЕНАЯ
ПАСХА
ПЕСЕНКА (СОЛНЫШКО ЛУЧИСТОЕ УЛЫБНУЛОСЬ ВЕСЕЛО)
ПЛАН
ПОРА ДОМОЙ
СВИДАНИЕ
СЕЛЬСКИЙ КАЙФ
СНЕГУРОЧКА
ТВОЙ ЗВОНОК
ТЕЩА
ТРИДЦАТЬ ЛЕТ
ТУМАН
УКУС ВАМПИРА
ЧЕРНЫЙ ВУРДАЛАК
Я УСТАЛ
ЯВА

samouchkanagitare.ru

Табулатура: Сектор Газа - Туман (соло)


E ------|------|------|------|------|------|-----------|-1-1-1-----1-|
 B ------|------|------|------|------|------|-4-4-4-3-1-|-------4-3---|
 G ------|------|------|------|------|------|-----------|-------------|
 D ------|------|------|------|------|------|-----------|-------------|
 A ------|------|------|------|------|------|-----------|-------------|
 E ------|------|------|------|------|------|-----------|-------------|
 
 E -1-1-------------|---|---------1-|-1-1-----1-|---1-------------|----
 B -----4-3-1-4-3-1-|-4-|-4-4---1---|-----4-3---|-6---4-4-1-4-3-1-|---1
 G -----------------|---|-----7-----|-----------|-----------------|-0--
 D -----------------|---|-----------|-----------|-----------------|----
 A -----------------|---|-----------|-----------|-----------------|----
 E -----------------|---|-----------|-----------|-----------------|----
 
 E -----|-----------------|---------|-----------------|------|------|--
 B -----|-----1-----1-----|---1-----|-----1-----1-----|------|------|--
 G -0-1-|-1-1---3-3-----0-|-0---0-1-|-1-1---3-3-----0-|------|------|--
 D -----|-------------3---|---------|-------------3---|------|------|--
 A -----|-----------------|---------|-----------------|------|------|--
 E -----|-----------------|---------|-----------------|------|------|--
 
 E ----|------|-11-|-11-11-10-8-13-|-13-13-11-10-13-|-13-13-11-10-8-11-
 B ----|------|----|---------------|----------------|------------------
 G ----|------|----|---------------|----------------|------------------
 D ----|------|----|---------------|----------------|------------------
 A ----|------|----|---------------|----------------|------------------
 E ----|------|----|---------------|----------------|------------------
 
 E 10-8-|-11-|-11-11----8-11-8-13-|-13-13-11-10-13-|-13-13-11-10-8-11-1
 B -----|----|-------15-----------|----------------|-------------------
 G -----|----|--------------------|----------------|-------------------
 D -----|----|--------------------|----------------|-------------------
 A -----|----|--------------------|----------------|-------------------
 E -----|----|--------------------|----------------|-------------------
 
 E 0-8-|---------|-----------------|---------|-----------------|------|
 B ----|---1-----|-----1-----1-----|---1-----|-----1-----1-----|------|
 G ----|-0---0-1-|-1-1---3-3-----0-|-0---0-1-|-1-1---3-3-----0-|------|
 D ----|---------|-------------3---|---------|-------------3---|------|
 A ----|---------|-----------------|---------|-----------------|------|
 E ----|---------|-----------------|---------|-----------------|------|
 
 E ------|------|------|------|------|------|------|------|------|-----
 B ------|------|------|------|------|------|------|------|------|-----
 G ------|------|------|------|------|------|------|------|------|-----
 D ------|------|------|------|------|------|------|------|------|-----
 A ------|------|------|------|------|------|------|------|------|-----
 E ------|------|------|------|------|------|------|------|------|-----
 
 E -|------|-11-|-11-11-10-8-13-|-13-13-11-10-13-|-13-13-11-10-8-11-10-
 B -|------|----|---------------|----------------|---------------------
 G -|------|----|---------------|----------------|---------------------
 D -|------|----|---------------|----------------|---------------------
 A -|------|----|---------------|----------------|---------------------
 E -|------|----|---------------|----------------|---------------------
 
 E 8-|-11-|-11-11----8-11-8-13-|-13-13-11-10-13-|-13-13----10-8----10-8
 B --|----|-------15-----------|----------------|-------16------16-----
 G --|----|--------------------|----------------|----------------------
 D --|----|--------------------|----------------|----------------------
 A --|----|--------------------|----------------|----------------------
 E --|----|--------------------|----------------|----------------------
 
 E -|---------|-----------------|---------|-----------------|------|---
 B -|---1-----|-----1-----1-----|---1-----|-----1-----1-----|------|---
 G -|-0---0-1-|-1-1---3-3-----0-|-0---0-1-|-1-1---3-3-----0-|------|---
 D -|---------|-------------3---|---------|-------------3---|------|---
 A -|---------|-----------------|---------|-----------------|------|---
 E -|---------|-----------------|---------|-----------------|------|---
 
 E ---|------|------|---------|-----------------|---------|------------
 B ---|------|------|---1-----|-----1-----1-----|---1-----|-----1-----1
 G ---|------|------|-0---0-1-|-1-1---3-3-----0-|-0---0-1-|-1-1---3-3--
 D ---|------|------|---------|-------------3---|---------|------------
 A ---|------|------|---------|-----------------|---------|------------
 E ---|------|------|---------|-----------------|---------|------------
 
 E -----|
 B -----|
 G ---0-|
 D -3---|
 A -----|
 E ------
 Автор подбора Никита Кожевников 

sing-my-song.com

Сектор Газа - Туман - аккорды, текст песни, видео уроки, варианты боя

EmAm
 Было хорошо, было так легко,
 H7Em
 Но на шею бросили аркан.
 Солнечный огонь, атмосферы бронь, пробивал,
 Но не пробил туман.
 
 Припев:
 AmDG
 И мертвый месяц еле освещает путь,
 EmAmDG
 И звезды давят нам на грудь - не продохнуть,
 EmAmD
 И воздух ядовит, как ртуть,
 GEm
 Нельзя свернуть, нельзя шагнуть,
 EmAmH7Em
 И не пройти нам этот путь в такой туман.
 
 А куда шагнуть - бог покажет путь.
 Бог для нас всегда - бесплотный вождь.
 Нас бросает в дрожь, вдруг начался дождь.
 Нас добьет конкретный, сильный дождь.
 Привет:
 И месяц провоцирует нас на обман,
 И испарение земли бьет как дурман,
 И каждый день нам как капкан,
 И хлещет кровь из наших ран,
 И не пройти нам этот путь в такой туман.
 
 Всё пошло на сдвиг, наша жизнь как миг
 Коротка как юбка у путан
 Нам всё не почём, через левое плечо
 Плюнем и пойдём через туман
 
 Припев:
 
 Пусть мертвый месяц еле освещает путь,
 Пусть звезды давят нам на грудь - не продохнуть,
 Пусть воздух ядовит, как ртуть,
 И пусть не видно где свернуть
 Но мы пройдём опасный путь, через туман
 
 Пусть месяц провоцирует нас на обман,
 Пусть испарение земли бьет как дурман,
 Пусть каждый день нам как капкан,
 Пусть хлещет кровь из наших ран,
 Но мы пройдём с тобою путь через туман | +2
 Но мы пройдём опасный путь через туман

Расскажите друзьям:


berugitaru.ru


Смотрите также