Как играть на гитаре сплин бонни и клайд


Бонни и Клайд, аккорды для гитары

Вступление: C Am Dm Dm C E|-----------0---|------------0---|-3-1---0---1---3---1----0---1------|----------0---| B|----1----------|----0h2---------|---------------------------------3-|----1---------| G|---0-----0---0-|---2----2-----2-|-----2---2---2---2----2---2----2---|---0----0---0-| D|--2----2-------|--2-------2-----|-0-----0---0---0---0----0---0------|--2---2-------| A|-3-------------|-0--------------|-----------------------------------|-3------------| E|---------------|----------------|-----------------------------------|--------------| Am Dm Dm E|-----------0---|----0h2-----0h2---|----0h2-----1---| B|---0h2---------|---3----3-------3-|---3----3-----3-| G|--2----2-----2-|--2-------2-------|--2-------2-----| D|-2-------2-----|-0----------------|-0--------------| A|0--------------|------------------|----------------| E|---------------|------------------|----------------| Основная часть: C Am Dm Dm E|----------0----|------------0---|----0h2-----1---|----0h2-----1-----| B|----1----------|----0h2---------|---3----3-----3-|---3----3-----3---| G|---0----0---0--|---2----2-----2-|--2-------2-----|--2-------2-------| D|--2---2--------|--2-------2-----|-0--------------|-0----------------| A|-3-------------|-0--------------|----------------|------------------| E|---------------|----------------|----------------|------------------| C Am Dm Никому не доверяй наших самых страшных тайн, C Am Dm Никому не говори, как мы умрем. C Am Dm В этой книге между строк спрятан настоящий Бог, C Am Dm Он смеется, он любуется тобой... C Am Dm Ведь ты красива, словно взмах волшебной палочки в руках C Am Dm Незнакомки из забытого мной сна. C Am Dm / Мы лежим на облаках, а внизу бежит река, / x2 C Am Dm / Нам вернули наши пули все сполна... / Проигрыш = вступление: C Am Dm Dm C E|-----------0---|------------0---|-3-1---0---1---3---1----0---1------|----------0---| B|----1----------|----0h2---------|---------------------------------3-|----1---------| G|---0-----0---0-|---2----2-----2-|-----2---2---2---2----2---2----2---|---0----0---0-| D|--2----2-------|--2-------2-----|-0-----0---0---0---0----0---0------|--2---2-------| A|-3-------------|-0--------------|-----------------------------------|-3------------| E|---------------|----------------|-----------------------------------|--------------| Am Dm Dm E|-----------0---|----0h2-----0h2---|----0h2-----1---| B|---0h2---------|---3----3-------3-|---3----3-----3-| G|--2----2-----2-|--2-------2-------|--2-------2-----| D|-2-------2-----|-0----------------|-0--------------| A|0--------------|------------------|----------------| E|---------------|------------------|----------------|

amdm.ru

Бони и Клайд аккорды под гитару 🎸 Сплин разбор песни

Привет, друзья! 

Пополним рубрику группы Саши Васильева. Споем песенку «Бони и Клайд». Очень интересная композиция в плане исполнения и достаточно простая.

Итак, аккорды сплин Бони и Клайд на видео, разбор, табулатура ниже.

Текст Песни

Никому не доверяй наших самых страшных тайн
Никому не говори, как мы умрем.
В этой книге между строк спрятан настоящий бог,
Он смеется он любуется тобой.

Ты красива, словно взмах волшебной палочки в руках
Незнакомки из забытого мной сна.
Мы лежим на облаках, а внизу бежит река,
Нам вернули наши пули все сполна.

Мы лежим на облаках, а внизу бежит река,
Нам вернули наши пули все сполна.

Красивая песня, но короткая. И всего три аккорда используется для ее исполнения. Однако, не все так просто. Вся композиция исполняется перебором. Причем перебор все время идет разный, и постоянно используются переходы между куплетами. Вот пример перебора:

А вот несколько примеров переходов:

Прикрепляю табулатуру для гитары — формат файла программы Гитар Про 6 (ГП5).

Скачать можно как всегда по подозрительной кнопке:

Так как перебор в течение песни очень разный — не стоит его строго играть по табулатуре. Можно выбрать пару шаблонов и их использовать. А вот переходы думаю стоит отработать все, и запомнить где какой играть!

Но на самом деле смотрите как вам удобнее и проще — табы есть, все в ваших руках.

Если вы не знакомы с табулатурами, то советую почитать эти статьи:

1. Как читать табулатуры для гитары

2. Обозначения в табулатурах

Поверьте — это очень простой материал, который будет полезен любому начинающему гитаристу.

Ну вот — на сегодня все. Пишите комментарии, замечания, пожелания. Делитесь постом с друзьями! Ну и подпишитесь на обновления блога, если вы еще не сделали этого — форма подписки внизу!

Всего хорошего. До новых встреч. В ближайшем будущем группа Кино — Кукушка аккорды.

Музыканту нужно песни писать! Деньги — это уже сфера продюсера, и это нужно четко разграничивать. Александр Васильев

pro-gitaru.ru

Сплин - Бонни и Клайд - аккорды, текст песни, видео уроки, варианты боя

Вступление:
 C Am Dm
 E|-----------0---|------------0---|
 H|----1----------|----0h2---------|
 G|---0-----0---0-|---2----2-----2-|
 D|--2----2-------|--2-------2-----|
 A|-3-------------|-0--------------|
 E|---------------|----------------|
 
 Dm C
 E|-3-1---0---1---3---1----0---1------|----------0---|
 H|---------------------------------3-|----1---------|
 G|-----2---2---2---2----2---2----2---|---0----0---0-|
 D|-0-----0---0---0---0----0---0------|--2---2-------|
 A|-----------------------------------|-3------------|
 E|-----------------------------------|--------------|
 
 
 Am Dm Dm
 E|-----------0---|----0h2-----0h2---|----0h2-----1---|
 H|---0h2---------|---3----3-------3-|---3----3-----3-|
 G|--2----2-----2-|--2-------2-------|--2-------2-----|
 D|-2-------2-----|-0----------------|-0--------------|
 A|0--------------|------------------|----------------|
 E|---------------|------------------|----------------|
 
 Основная часть:
 C Am Dm 
 E|----------0----|------------0---|
 H|----1----------|----0h2---------|
 G|---0----0---0--|---2----2-----2-|
 D|--2---2--------|--2-------2-----|
 A|-3-------------|-0--------------|
 E|---------------|----------------|
 
 Dm
 E|----0h2-----1---|----0h2-----1-----|
 H|---3----3-----3-|---3----3-----3---|
 G|--2-------2-----|--2-------2-------|
 D|-0--------------|-0----------------|
 A|----------------|------------------|
 E|----------------|------------------|
 CAm 
 Никому не доверяй 
 Dm 
 Наших самых страшных тайн,
 CAmDm 
 Никому не говори, как мы умрем.
 
 В этой книге между строк
 Спрятан настоящий бог,
 Он смеется, он любуется тобой.
 
 Ты красива, словно взмах
 
 Волшебной палочки в руках
 Незнакомки из забытого мной сна.
 
 Мы лежим на облаках,
 А внизу бежит река,
 Нам вернули наши пули все сполна.
 
 Мы лежим на облаках,
 А внизу бежит река,
 Нам вернули наши пули все сполна.

Расскажите друзьям:


berugitaru.ru

Аккорды Сплин - Бонни и Клайд, табы, текст песни | Аккорды Бонни и Клайд

Главная > Аккорды > С > Сплин


Подбор прислал: gitaristu.ru
Фонарь под глазом (1997)
 Бонни и Клайд
 
 C Am
 Никому не доверяй
 Dm
 Наших самых страшных тайн,
 C Am Dm
 Никому не говори, как мы умрем.
 В этой книге между строк
 Спрятан настоящий бог,
 Он смеется, он любуется тобой.
 
 Ты прекрасна, словно взмах
 Волшебной палочки в руках
 Незнакомки из забытого мной сна.
 Мы лежим на облаках,
 А внизу бежит река,
 Нам вернули наши пули все сполна.
 
 -
 
 Am G E Am
 e|-----|---------------|-------|-------|-----------------|
 H|-----|-0--0----0--0--|--0----|---0---|--31-0-13-1-0-1--|
 G|-----|--2--2----2--2-|----0--|----1--|-----------------|
 D|-----|2--2--2-2--2--2|-----0-|------2|----------------2|
 A|---30|-------0-------|------0|--2----|-0---------------|
 E|-03--|---------------|-3-----|-0-----|-----------------|
 
 G E Am
 e|-------|-------|-----------------|
 H|--0----|---0---|--31-0-13-1-0-1--|
 G|----0--|----1--|-----------------|
 D|-----0-|------2|----------------2|
 A|------0|--2----|-0---------------|
 E|-3-----|-0-----|-----------------|
 
 Проигрыш: A|----30------
 E|-003--------
 
 Если кому-то поможет, вот партия вокала:
 
 e|000--------------0--000------------
 H|----33-10--01-12--1-----33-1010--1-
 G|----------2---------------------2--
 
 И играть лучше так:
 
 Am G C Am
 e|---5---|---3---|---0---|----|
 H|---5---|---3---|---1---|----|
 G|---5---|---4---|---0---|-5--|
 D|----7--|-------|--2-2--|-7--|
 A|--7--7-|--5----|-3-----|-7--|
 E|-5-----|-3-----|-------|-5--|
 
 Am GE Am
 e|---5---|----|---|----|
 H|---5---|----|---|----|
 G|---5---|----|-1-|-5--|
 D|----7--|----|-2-|-7--|
 A|--7--7-|--5-|-2-|-7--|
 E|-5-----|-3--|-0-|-5--|
 
 Am G C C Am
 Никому не доверяй наших самых страшных тайн,
 Am G (E) Am
 Никому не говори как мы умрем.
 Am G
 В этой книге, между строк,
 C C Am
 Спрятан настоящий Бог.
 Am G Am
 Он смеется, он любуется тобой.
 Ты красива, словно взмах волшебной палочки в руках,
 Незнакомки из забытого мной сна.
 Мы лежим на облаках,
 А внизу бежит река } 2 раза.
 Нам вернули наши пули все сполна
 
 -
 
 intro: Dm C Am x2
 
 C Am Dm
 НИКОМУ НЕ ДОВЕРЯЙ НАШИХ САМЫХ СТРАШНЫХ ТАЙН,
 C Am Dm
 НИКОМУ НЕ ГОВОРИ, КАК МЫ УМРЕМ;
 В ЭТОЙ КНИГЕ МЕЖДУ СТРОК СПРЯТАН НАСТОЯЩИЙ БОГ,
 ОН СМЕЕТСЯ, ОН ЛЮБУЕТСЯ ТОБОЙ...
 
 ТЫ КРАСИВА, СЛОВНО ВЗМАХ ВОЛШЕБНОЙ ПАЛОЧКИ В РУКАХ
 НЕЗНАКОМКИ ИЗ ЗАБЫТОГО МНОЙ СНА;
 МЫ ЛЕЖИМ НА ОБЛАКАХ, А ВНИЗУ БЕЖИТ РЕКА, 2 раза
 НАМ ВЕРНУЛИ НАШИ ПУЛИ ВСЕ СПОЛНА /
Расскажи друзьям!

Популярное на этой неделе:


www.gitaristu.ru


Смотрите также