Как играть на гитаре сайлент хилл


Misc Soundtrack - Promise (OST "Silent Hill 2"), аккорды для гитары

----------------------------------------------------------------- ----------1---------------1---------------1---------------0------ --------------------------------------0-------0-------0-------0-- ------2-------2-------3-------3-------------------0-------------- --0---------------0---------------3------------------------------ ----------------------------------------------------------------- x4 (Drums enter the third time. Guitar two enters during the end of the fourth time, while the background riff continues.) |---------------------------------------------------------------- |-------------------------------------------------------------15- |*--------------------------------------------------------------- |*--------------------------------------------------------------- |---------------------------------------------------------------- |---------------------------------------------------------------- -------------------------------15------------------------------- -17------------------------------------------------------------- -----------------------------------17------------------------14- ---------------------------------------------------------------- ---------------------------------------------------------------- ---------------------------------------------------------------- -12------------------------------------------------------------- -------------------------------13------------------------------- ------------------------------------12-------------------------- ---------------------------------------------------------------- ---------------------------------------------------------------- ---------------------------------------------------------------- ---------------------------------------------------------------- ---------------------------------------------------------------- -------/12-12-12--10-9-9~~~~~~~--------------------------------- ---------------------------------------------12-12/14-1410-10--- ---------------------------------------------------------------- ---------------------------------------------------------------- ------------------------------------------------------------------- --------------------------------------------/13-13-13-------------- -------/12-12-12/14-12---------------------------------1612-129---- ------------------------------------------------------------------- ------------------------------------------------------------------- ------------------------------------------------------------------- ---------------------------------------------------------------- ---------------------------------------------------------------- -------/12-12-12--10-9-9~~~~~~~--------------------------------- ---------------------------------------------12-12/14-1410-10--- ---------------------------------------------------------------- ---------------------------------------------------------------- ------------------------------------------------------------ --------------------------------------------/13-13-13-12-12- ---------/12-12-12/14-12------------------------------------ ------------------------------------------------------------ ------------------------------------------------------------ ------------------------------------------------------------ (Guitar one tacit.) ------------------------------------------------ -/13---12------12-13-13/15-------13-12---13-12-- ----------14------------------------------------ ------------------------------------------------ ------------------------------------------------ ------------------------------------------------ ----------------------------------------------- ---------12-13-13-12-13-13/15---13-15---15/17-- --14------------------------------------------- ----------------------------------------------- ----------------------------------------------- ----------------------------------------------- ----------------------------------------------- -13--12------12-13-13/15-------13-12---13-12- ---------14------------------------------------ ----------------------------------------------- ----------------------------------------------- ----------------------------------------------- ----------------------------------------------- ---------12-13-13-12-13-13/15---13-15---15/17-- --14------------------------------------------- ----------------------------------------------- ----------------------------------------------- ----------------------------------------------- 1.____[end_of_first_time]_______________________________________ | (Background riff returns.) ----------------------------------------------------------------| ----------------------------------------------------------------| --14~~~~~~~~~~~~~~~~~~~~~~~~~~~~~~~~~~~~~~~~~~~~~--------------*| ---------------------------------------------------------------*| ----------------------------------------------------------------| ----------------------------------------------------------------| 2.____[end_of_second_time]_____________________________________ | 








     (adsbygoogle = window.adsbygoogle || []).push({});



E5 G1|-------------------------------------------------------------- U |-------------------------------------------------------------- I |-------------------------------------------------------------- T |--2--2--2----------------------------------------------------- A |--2--2--2----------------------------------------------------- R |--0--0--0----------------------------------------------------- | | Em G3|--------------------------------------3---0------------------- U |------------------------------------0-----0------------------- I |------------------------------------------0------------------- T |------------------------------------------2------------------- A |-------------------------------------------------------------- R |-------------------------------------------------------------- E5 G1|--------------------------------------------------------------| U |--------------------------------------------------------------| I |--------------------------------------------------------------| T |--2--2--2-----------------------------------------------------| A


 |--2--2--2-----------------------------------------------------| R |--0--0--0-----------------------------------------------------| | | | Em | G3|--------------------------------------3---0-------------------| U |------------------------------------0-----0-------------------| I |------------------------------------------0-------------------| T |------------------------------------------2-------------------| A |--------------------------------------------------------------| R |--------------------------------------------------------------| x2 E5 G1|--------------------------------------------- U |--------------------------------------------- I |--------------------------------------------- T |--2--2--2------------------------------------ A |--2--2--2------------------------------------ R |--0--0--0------------------------------------ | | Em G3|--------------------------------------3---0-- U |------------------------------------0-----0-- I |------------------------------------------0-- T |------------------------------------------2-- A |--------------------------------------------- R |--------------------------------------------- (Guitar one tacit. Guitar two returns.) G2|-------------------------------------------- U |-------------------------------------------- I |--------------------------------------9--11- T |-----------------------------------9-------- A |-------------------------------------------- R |-------------------------------------------- | | Cmaj7 G3|------------0------------------------------- U |---0--------------0--0--0--0--0--0--0--0--0- I |---------------0-----0--0--0--0--0--0--0--0- T |---------------------2--2--2--2--2--2--2--2- A |-/3------------------------3--3--3--3--3--3- R |-------------------------------------------- let ring.......... 

Misc Soundtrack - Silent Hill Theme, аккорды для гитары

Silent Hill intro theme
 b-bend
 h-hammer on
 ^-let ring
 ()-harmonics
 /slide
 
 Riff 1: Guitar 1: (or rather mandolin)
 
 ---------------------------------------------------------------------------------
 --------------------------------------------------------------------------------
 ---------------------------------------------------------------------------------
 ---------------------------------------------------------------------------------
 --------------------------------------------------------------------------------- x2
 ---7777777-6666666-5555555-6666666---------------------------------
 
 meanwhile the 2nd mandolin does something like this
 ---------------------------------------------------------------------------------
 ---------------------------------------------------------------------------------
 ------9-------8--------9-10---9----------------------------------------------- x2
 ----9---9-------8—9-------9--------------------------------------------------
 --7---------6---------------------7---------------------------------------------
 
 then mandolin 1
 ---------------------------------------------------------------------------------
 ---------------------------------------------------------------------------------
 ---------------------------------------------------------------------------------
 ---------------------------------------------------------------------------------
 ----7-8888888-101010-5555--33-55--------------------------------------- then go back into
 --------------------------------------------------------------------------------- riff 1 of guitar 1
 
 mandolin 2 does this
 ---------------------------------------------------------------------------------
 ---------------------------------------------------------------------------------
 ------8------------9-------8----7---------------------------------------------- then back to first 
 --------8---9--------9-------8---7--------------------------------------------- part
 ----6----------7--------6-------------------------------------------------------
 
 riff 2
 Guitar one 
 
 ---------------------------------------------------------------------------------
 ---------------------------------------------------------------------------------
 ---------------------------------------------------------------------------------
 --------------------5h7-5-4-0-----------5h7-5-4-12-------------------------
 --2-2-2-2-b3^-----------------2222b3---------------------------------------
 
 
 meanwhile guitar 2 does this
 ---------------------------------------------------------------------------------
 ---------------------------------------------------------------------------------
 ---------------------------------------------------------------------------------
 --------------------------------------------------------------------------------- on and on until
 --------------------------------------------------------------------------------- the second 5h7 line
 ---0-1-2-0-2-3-(5)-------------------------------------------------------------
 
 
 then
 ---------------------------------------------------------------------------------
 ---------------------------------------------------------------------------------
 ---------------------------------------------------------------------------------
 ---------------------------------------------------------------------------------
 -----2/4-444-99--------------------------------------------------------------
 ---------------------------------------------------------------------------------
 
 now you start riff 2 over but with a third guitar/mandolin/piano playing this 
 
 ----------------------------------------------------------------------------------------
 ---------------------------------------------------------------------------------
 ---------------------------------------------------------------------------------
 ---------------------------------------------------------------------------------
 --2/4-444-9-7-5-4------------------------------------------------------------
 ---------------------------------------------------------------------------------
 
 riff 3/solo
 
 ---------------------------------------------------------------------------------------------------------
 ----------------------------------------------------------------------------------------------------------
 ----------------------------------------------------------------------------------------------------------
 ----------------------------------------------------------------------------------------------------------
 --777777-55-77777--1010---777777-55-33---777777-55-77777-1010--12------------------
 ---------------------------------------------------------------------------------------------------------
 
 then
 
 
 ---------------------------------------------------------------------------------
 ---------------------------------------------------------------------------------
 ---------4--------5----------4--------7----------------------------------------- repeat about 6 times
 ------4---4----5---5-----4----4---7---7---------------------------------------
 ---2--------3----------2----------5---------------------------------------------
 
 
 ---------------------------------------------------------------------------------
 ---------------------------------------------------------------------------------
 ---------------------------------------------------------------------------------
 --------------------------------------------------------------------------------- x2
 --------------------888888-77777--888-7-5---888888-777777-5555---
 ---------------------------------------------------------------------------------
 
 I don’t know about the background, its just like the james bond sounding beginning of this part
 
 ---------------------------------------------------------------------------------
 ----------------------------------------------------------------------------------
 ---------------------------------------------------------------------------------
 --------------------------------------------------------------------------------- 
 --------------------------------888888--1212-1010-888-444-55-777----
 -------------------------------------- ------------------------------------------
 
 this is really just repeated in variation throughout the rest of the song, though the violin part sounds like this
 
 ---------------------------------------------------------------------------------
 ---------------------------------------------------------------------------------
 ---------------------------------------------------------------------------------
 ---------------------------------------------------------------------------------
 ------8888-101010-888-77--------------------------------------------------
 ---------------------------------------------------------------------------------
 
 then the violin plays that, and the original 1st riff is played along with the solo
 
 that’s about it, some is probably wrong, it was all tabbed out by ear. So you can buy the correct sheet music and tab that, or you can email me at [email protected]

Misc Television - Silent Hill Theme, аккорды для гитары

Silent Hill intro theme
 b-bend
 h-hammer on
 ^-let ring
 ()-harmonics
 /slide
 
 Riff 1: Guitar 1: (or rather mandolin)
 
 ---------------------------------------------------------------------------------
 --------------------------------------------------------------------------------
 ---------------------------------------------------------------------------------
 ---------------------------------------------------------------------------------
 --------------------------------------------------------------------------------- x2
 ---7777777-6666666-5555555-6666666---------------------------------
 
 meanwhile the 2nd mandolin does something like this
 ---------------------------------------------------------------------------------
 ---------------------------------------------------------------------------------
 ------9-------8--------9-10---9----------------------------------------------- x2
 ----9---9-------8—9-------9--------------------------------------------------
 --7---------6---------------------7---------------------------------------------
 
 then mandolin 1
 ---------------------------------------------------------------------------------
 ---------------------------------------------------------------------------------
 ---------------------------------------------------------------------------------
 ---------------------------------------------------------------------------------
 ----7-8888888-101010-5555--33-55--------------------------------------- then go back into
 --------------------------------------------------------------------------------- riff 1 of guitar 1
 
 mandolin 2 does this
 ---------------------------------------------------------------------------------
 ---------------------------------------------------------------------------------
 ------8------------9-------8----7---------------------------------------------- then back to first 
 --------8---9--------9-------8---7--------------------------------------------- part
 ----6----------7--------6-------------------------------------------------------
 
 riff 2
 Guitar one 
 
 ---------------------------------------------------------------------------------
 ---------------------------------------------------------------------------------
 ---------------------------------------------------------------------------------
 --------------------5h7-5-4-0-----------5h7-5-4-12-------------------------
 --2-2-2-2-b3^-----------------2222b3---------------------------------------
 
 
 meanwhile guitar 2 does this
 ---------------------------------------------------------------------------------
 ---------------------------------------------------------------------------------
 ---------------------------------------------------------------------------------
 --------------------------------------------------------------------------------- on and on until
 --------------------------------------------------------------------------------- the second 5h7 line
 ---0-1-2-0-2-3-(5)---------------------------------------------------------------
 
 
 then
 ---------------------------------------------------------------------------------
 ---------------------------------------------------------------------------------
 ---------------------------------------------------------------------------------
 ---------------------------------------------------------------------------------
 -----2/4-444-99------------------------------------------------------------------
 ---------------------------------------------------------------------------------
 
 now you start riff 2 over but with a third guitar/mandolin/piano playing this 
 
 ---------------------------------------------------------------------------------
 ---------------------------------------------------------------------------------
 ---------------------------------------------------------------------------------
 ---------------------------------------------------------------------------------
 --2/4-444-9-7-5-4----------------------------------------------------------------
 ---------------------------------------------------------------------------------
 
 riff 3/solo
 
 -------------------------------------------------------------------------------
 -------------------------------------------------------------------------------
 -------------------------------------------------------------------------------
 -------------------------------------------------------------------------------
 --777777-55-77777--1010---777777-55-33---777777-55-77777-1010--12--------------
 -------------------------------------------------------------------------------
 
 then
 
 
 ---------------------------------------------------------------------------------
 ---------------------------------------------------------------------------------
 ---------4--------5----------4--------7----------------------------------------- repeat about 6 times
 ------4---4----5---5-----4----4---7---7------------------------------------------
 ---2--------3----------2----------5----------------------------------------------
 
 
 ---------------------------------------------------------------------------------
 ---------------------------------------------------------------------------------
 ---------------------------------------------------------------------------------
 --------------------------------------------------------------------------------- x2
 ------------------------------------888888-77777--888-7-5---888888-777777-5555---
 ---------------------------------------------------------------------------------
 
 I don’t know about the background, its just like the james bond sounding beginning of this part
 
 ---------------------------------------------------------------------------------
 ---------------------------------------------------------------------------------
 ---------------------------------------------------------------------------------
 --------------------------------------------------------------------------------- 
 ---------------------------------------------888888--1212-1010-888-444-55-777----
 -------------------------------------- ------------------------------------------
 
 this is really just repeated in variation throughout the rest of the song, though the 
 violin part sounds like this
 
 ---------------------------------------------------------------------------------
 ---------------------------------------------------------------------------------
 ---------------------------------------------------------------------------------
 ---------------------------------------------------------------------------------
 -------------8888-101010-888-77--------------------------------------------------
 ---------------------------------------------------------------------------------
 
 then the violin plays that, and the original 1st riff is played along with the solo
 
 that’s about it, some is probably wrong, it was all tabbed out by ear. So you can buy the
 correct sheet music and tab that, or you can email me at [email protected]

Silent Hill Theme Misc Television Аккорды, тексты песен, видео.

 
Silent Hill intro theme
 b-bend
 h-hammer on
 ^-let ring
 ()-harmonics
 /slide
 
 Riff 1: Guitar 1: (or rather mandolin)
 
 ---------------------------------------------------------------------------------
 --------------------------------------------------------------------------------
 ---------------------------------------------------------------------------------
 ---------------------------------------------------------------------------------
 --------------------------------------------------------------------------------- x2
 ---7777777-6666666-5555555-6666666---------------------------------
 
 meanwhile the 2nd mandolin does something like this
 ---------------------------------------------------------------------------------
 ---------------------------------------------------------------------------------
 ------9-------8--------9-10---9----------------------------------------------- x2
 ----9---9-------89-------9--------------------------------------------------
 --7---------6---------------------7---------------------------------------------
 
 then mandolin 1
 ---------------------------------------------------------------------------------
 ---------------------------------------------------------------------------------
 ---------------------------------------------------------------------------------
 ---------------------------------------------------------------------------------
 ----7-8888888-101010-5555--33-55--------------------------------------- then go back into
 --------------------------------------------------------------------------------- riff 1 of guitar 1
 
 mandolin 2 does this
 ---------------------------------------------------------------------------------
 ---------------------------------------------------------------------------------
 ------8------------9-------8----7---------------------------------------------- then back to first 
 --------8---9--------9-------8---7--------------------------------------------- part
 ----6----------7--------6-------------------------------------------------------
 
 riff 2
 Guitar one 
 
 ---------------------------------------------------------------------------------
 ---------------------------------------------------------------------------------
 ---------------------------------------------------------------------------------
 --------------------5h7-5-4-0-----------5h7-5-4-12-------------------------
 --2-2-2-2-b3^-----------------2222b3---------------------------------------
 
 
 meanwhile guitar 2 does this
 ---------------------------------------------------------------------------------
 ---------------------------------------------------------------------------------
 ---------------------------------------------------------------------------------
 --------------------------------------------------------------------------------- on and on until
 --------------------------------------------------------------------------------- the second 5h7 line
 ---0-1-2-0-2-3-(5)---------------------------------------------------------------
 
 
 then
 ---------------------------------------------------------------------------------
 ---------------------------------------------------------------------------------
 ---------------------------------------------------------------------------------
 ---------------------------------------------------------------------------------
 -----2/4-444-99------------------------------------------------------------------
 ---------------------------------------------------------------------------------
 
 now you start riff 2 over but with a third guitar/mandolin/piano playing this 
 
 ---------------------------------------------------------------------------------
 ---------------------------------------------------------------------------------
 ---------------------------------------------------------------------------------
 ---------------------------------------------------------------------------------
 --2/4-444-9-7-5-4----------------------------------------------------------------
 ---------------------------------------------------------------------------------
 
 riff 3/solo
 
 -------------------------------------------------------------------------------
 -------------------------------------------------------------------------------
 -------------------------------------------------------------------------------
 -------------------------------------------------------------------------------
 --777777-55-77777--1010---777777-55-33---777777-55-77777-1010--12--------------
 -------------------------------------------------------------------------------
 
 then
 
 
 ---------------------------------------------------------------------------------
 ---------------------------------------------------------------------------------
 ---------4--------5----------4--------7----------------------------------------- repeat about 6 times
 ------4---4----5---5-----4----4---7---7------------------------------------------
 ---2--------3----------2----------5----------------------------------------------
 
 
 ---------------------------------------------------------------------------------
 ---------------------------------------------------------------------------------
 ---------------------------------------------------------------------------------
 --------------------------------------------------------------------------------- x2
 ------------------------------------888888-77777--888-7-5---888888-777777-5555---
 ---------------------------------------------------------------------------------
 
 I dont know about the background, its just like the james bond sounding beginning of this part
 
 ---------------------------------------------------------------------------------
 ---------------------------------------------------------------------------------
 ---------------------------------------------------------------------------------
 --------------------------------------------------------------------------------- 
 ---------------------------------------------888888--1212-1010-888-444-55-777----
 -------------------------------------- ------------------------------------------
 
 this is really just repeated in variation throughout the rest of the song, though the 
 violin part sounds like this
 
 ---------------------------------------------------------------------------------
 ---------------------------------------------------------------------------------
 ---------------------------------------------------------------------------------
 ---------------------------------------------------------------------------------
 -------------8888-101010-888-77--------------------------------------------------
 ---------------------------------------------------------------------------------
 
 then the violin plays that, and the original 1st riff is played along with the solo
 
 thats about it, some is probably wrong, it was all tabbed out by ear. So you can buy the
 correct sheet music and tab that, or you can email me at [email protected]

Видео для песни "Silent Hill Theme":

Silent Hill - promise Misc Soundtrack Аккорды, тексты песен, видео.

 
-----------------------------------------------------------------
 ----------1---------------1---------------1---------------0------
 --------------------------------------0-------0-------0-------0--
 ------2-------2-------3-------3-------------------0--------------
 --0---------------0---------------3------------------------------
 ----------------------------------------------------------------- x4
 
 (Drums enter the third time. Guitar two enters during the end of the fourth
 time, while the background riff continues.)
 
 |----------------------------------------------------------------
 |-------------------------------------------------------------15-
 |*---------------------------------------------------------------
 |*---------------------------------------------------------------
 |----------------------------------------------------------------
 |----------------------------------------------------------------
 
 -------------------------------15-------------------------------
 -17-------------------------------------------------------------
 -----------------------------------17------------------------14-
 ----------------------------------------------------------------
 ----------------------------------------------------------------
 ----------------------------------------------------------------
 
 -12-------------------------------------------------------------
 -------------------------------13-------------------------------
 ------------------------------------12--------------------------
 ----------------------------------------------------------------
 ----------------------------------------------------------------
 ----------------------------------------------------------------
 
 ----------------------------------------------------------------
 ----------------------------------------------------------------
 -------/12-12-12--10-9-9~~~~~~~-------------------------------
 ---------------------------------------------12-12/14-1410-10--
 ----------------------------------------------------------------
 ----------------------------------------------------------------
 
 -------------------------------------------------------------------
 --------------------------------------------/13-13-13--------------
 -------/12-12-12/14-12---------------------------------1612-129--
 -------------------------------------------------------------------
 -------------------------------------------------------------------
 -------------------------------------------------------------------
 
 ----------------------------------------------------------------
 ----------------------------------------------------------------
 -------/12-12-12--10-9-9~~~~~~~-------------------------------
 ---------------------------------------------12-12/14-1410-10--
 ----------------------------------------------------------------
 ----------------------------------------------------------------
 
 ------------------------------------------------------------
 --------------------------------------------/13-13-13-12-12-
 ---------/12-12-12/14-12------------------------------------
 ------------------------------------------------------------
 ------------------------------------------------------------
 ------------------------------------------------------------
 
 (Guitar one tacit.)
 
 ------------------------------------------------
 -/13---12------12-13-13/15-------13-12---13-12-
 ----------14------------------------------------
 ------------------------------------------------
 ------------------------------------------------
 ------------------------------------------------
 
 -----------------------------------------------
 ---------12-13-13-12-13-13/15---13-15---15/17--
 --14-------------------------------------------
 -----------------------------------------------
 -----------------------------------------------
 -----------------------------------------------
 
 -----------------------------------------------
 -13--12------12-13-13/15-------13-12---13-12-
 ---------14------------------------------------
 -----------------------------------------------
 -----------------------------------------------
 -----------------------------------------------
 
 -----------------------------------------------
 ---------12-13-13-12-13-13/15---13-15---15/17--
 --14-------------------------------------------
 -----------------------------------------------
 -----------------------------------------------
 -----------------------------------------------
 
 1.____[end_of_first_time]_______________________________________
 |
 (Background riff returns.)
 ----------------------------------------------------------------|
 ----------------------------------------------------------------|
 --14~~~~~~~~~~~~~~~~~~~~~~~~~~~~~~~~~~~~~~~~~~~~~--------------*|
 ---------------------------------------------------------------*|
 ----------------------------------------------------------------|
 ----------------------------------------------------------------|
 
 2.____[end_of_second_time]_____________________________________
 | E5
 G1|--------------------------------------------------------------
 U |--------------------------------------------------------------
 I |--------------------------------------------------------------
 T |--2--2--2-----------------------------------------------------
 A |--2--2--2-----------------------------------------------------
 R |--0--0--0-----------------------------------------------------
 |
 | Em
 G3|--------------------------------------3---0-------------------
 U |------------------------------------0-----0-------------------
 I |------------------------------------------0-------------------
 T |------------------------------------------2-------------------
 A |--------------------------------------------------------------
 R |--------------------------------------------------------------
 
 
 E5
 G1|--------------------------------------------------------------|
 U |--------------------------------------------------------------|
 I |--------------------------------------------------------------|
 T |--2--2--2-----------------------------------------------------|
 A |--2--2--2-----------------------------------------------------|
 R |--0--0--0-----------------------------------------------------|
 | |
 | Em |
 G3|--------------------------------------3---0-------------------|
 U |------------------------------------0-----0-------------------|
 I |------------------------------------------0-------------------|
 T |------------------------------------------2-------------------|
 A |--------------------------------------------------------------|
 R |--------------------------------------------------------------| x2
 
 E5
 G1|---------------------------------------------
 U |---------------------------------------------
 I |---------------------------------------------
 T |--2--2--2------------------------------------
 A |--2--2--2------------------------------------
 R |--0--0--0------------------------------------
 |
 | Em
 G3|--------------------------------------3---0--
 U |------------------------------------0-----0--
 I |------------------------------------------0--
 T |------------------------------------------2--
 A |---------------------------------------------
 R |---------------------------------------------
 
 
 (Guitar one tacit. Guitar two returns.)
 
 G2|--------------------------------------------
 U |--------------------------------------------
 I |--------------------------------------9--11-
 T |-----------------------------------9--------
 A |--------------------------------------------
 R |--------------------------------------------
 |
 | Cmaj7
 G3|------------0-------------------------------
 U |---0--------------0--0--0--0--0--0--0--0--0-
 I |---------------0-----0--0--0--0--0--0--0--0-
 T |---------------------2--2--2--2--2--2--2--2-
 A |-/3------------------------3--3--3--3--3--3-
 R |--------------------------------------------
 let ring.......... 

Видео для песни "Silent Hill - promise":


Смотрите также