Как играть на гитаре призрак оперы


Blink 182 - Phantom Of The Opera, аккорды для гитары

Intro: do this til verse E--------------------------------------------- B--------------------------------------------- G---7--757--757---757/12---7--757-757-7575757- D--------------------------------------------- A--------------------------------------------- E--------------------------------------------- Verse 1: D C D In sleep he sang to me A G A In dreams he came C D That voiсe which calls to me A G A And speaks my name A# C And do I dream again D C D For now I find Сhorus: D A# The Phantom of the Opera is there A Inside my mind Riff 1: E|--------------------------------------------- B|--------------------------------------------- G|-----7--/---3----/----7------/---3----/----7- D|-----7--/---1----/----7------/---3----/----7- A|-----5--/---1----/----5------/---1----/----5- E|--------------------------------------------- Verse 2: D C D Sing onсe again with me A G A Our strange duet C D My power over you A G A Grows stronger yet A# C And though you turn from me D C D To glance behind Сhorus: D A# The Phantom of the Opera is there A Inside my mind Riff 1: E|--------------------------------------------- B|--------------------------------------------- G|-----7--/---3----/----7------/---3----/----7- D|-----7--/---1----/----7------/---3----/----7- A|-----5--/---1----/----5------/---1----/----5- E|--------------------------------------------- Verse 3: B D E Those who have seen your face B A B Draw back in fear D E I am the mask you wear B A B It's me they hear D E Your/my spirit and your/my voiсe B A B in one сombined Сhorus: E s l i d e t o C The Phantom of the Opera is there E Inside my mind Riff 2: E|-------------------------------------------- B|-------------------------------------------- G|-----9--/---5----/----9------/---5----/---9- D|-----9--/---5----/----9------/---5----/---9- A|-----7--/---3----/----7------/---3---/----7- E|-------------------------------------------- B D E In all your fantasies B A B You always knew D E That man and mystery B A B were both in you D E And in this labyrinth B A B Were night is blind D E The Phantom of the Opera is here/there B A B Inside my/your mind Сhorus: E s l i d e t o C The Phantom of the Opera is there E Inside my mind Riff 2: E|-------------------------------------------- B|-------------------------------------------- G|-----9--/---5----/----9------/---5----/---9- D|-----9--/---5----/----9------/---5----/---9- A|-----7--/---3----/----7------/---3---/----7- E|--------------------------------------------

amdm.ru

The Plantom Of The Opera. Аккорды и текст песни – Accordium Delectus Подборка аккордов

Вступление: Cm B A G# A B Cm - 2 раза

Cm            Fm           
In sleep he sang to me
B                  Cm       
In dreams he came...
Cm                    Fm          
That voice which calls to me
B                     Cm    
And speaks my name

Cm           G#           
And do I dream again?
B           Cm 
For now I find
Cm                                    G#m   
The Phantom of the Opera is there -
G#m        Cm     
Inside my mind...

Проигрыш: Cm B A G# Fm

Переход в тональность Fm

Fm              Bm             
Sing once again with me
D#               Fm    
Our strange duet...
Fm          Bm         
My power over you
D#                  Fm     
Grows stronger yet...

Fm                   C#              
And though you turn from me,
D#              Fm  
To glance behind,
Fm                                     C#m    
The Phantom of the Opera is there -
C#m           Fm     
Inside your mind...

Проигрыш: Fm D# D C# C Dm

Перехол в тональность Dm

Dm                    Gm               
Those who have seen your face
C                  Dm     
Draw back in fear...
Dm          Gm                   
I am the mask you wear...
C                 Dm     
It's me they hear...

Dm           B                  
Your spirit and my voice,
C             Dm    
In one combined:
Dm                                      Bm     
The Phantom of the Opera is there -
Bm             Dm     
Inside your mind...

Проигрыш: Dm C H B H C Dm C H B A D#m

Переход в тональность D#m

 D#m            H              
In all your fantasies,
C#             D#m 
You always knew
D#m                H          
That man and mystery...
C#             D#m   
Were both in you...

D#m          H           
And in this labyrinth,
C#                 D#m  
Where night is blind,
D#m                                   Hm     
The Phantom of the Opera is here -
Hm            D#m     
Inside your mind...

Окончание:

D#m C# C H C C# D#m C# C H

Fm C# Fm C#    Gm D# Gm D#

Gm F E D# E F Gm F E D# D  

   

www.ackordofmine.ru

Аккорды Iced Earth - Phantom Opera Ghost (табулатура), табы, текст песни | Аккорды Phantom Opera Ghost (табулатура)

Главная > Аккорды > I > Iced Earth


Подбор прислал: gitaristu.ru
Band- Iced Earth
 Song- Phantom Opera Ghost
 Album- Horror Show
 
 Tuning: Eb
 
 Intro
 
 Guitar 1 (Mandolin arranged for a 12 string acoustic)
 x2
 eb|------------------------------------------------|
 Bb|------------------------------------------------|
 Gb|---------9-----9-10--9-----9--------------------|
 Db|--10-12----10----------12----10-12--9-10----10--|
 Ab|------------------------------------------------|
 Eb|------------------------------------------------|
 x2
 eb|-----------------------------------------------|
 Bb|-----------------------------------------------|
 Gb|-----------------------------------------------|
 Db|---7----10--9--7----10--9--7-----7--9--9\7--7--|
 Ab|-----------------------------10----------------|
 Eb|-----------------------------------------------|
 
 
 Guitar 2 (Acoustic) x2
 eb|--------------------------------------|
 Bb|--------------------------------------|
 Gb|--------------------------------------|
 Db|-7-9-10-7-10-12-10-9-10-7-9-6-7-7-7-7-|
 Ab|--------------------------------------|
 Eb|--------------------------------------|
 
 eb|----------------------------------------|
 Bb|----------------------------------------|
 Gb|------------------5-4----2-4--4\2-2-2-2-|
 Db|-2-3-5-0-2-2-2-2-------5----------------|
 Ab|----------------------------------------|
 Eb|----------------------------------------|
 
 eb|----------------------------------------|
 Bb|----------------------------------------|
 Gb|-------3-2-2-2-2--5-4----2-4--4\2-2-2-2-|
 Db|-2-3-5-----------------5----------------|
 Ab|----------------------------------------|
 Eb|----------------------------------------|
 x2
 eb|--------------------------------------|
 Bb|--------------------------------------|
 Gb|--------------------------------------|
 Db|-7-9-10-7-10-12-10-9-10-7-9-6-7-7-7-7-|
 Ab|--------------------------------------|
 Eb|--------------------------------------|
 
 eb|----------------------------------------|
 Bb|----------------------------------------|
 Gb|------------------5-4----2-4--4\2-2-2-2-|
 Db|-2-3-5-0-2-2-2-2-------5----------------|
 Ab|----------------------------------------|
 Eb|----------------------------------------|
 
 eb|-------------------------------------|
 Bb|-------------------------------------|
 Gb|-------3-2-2-2-2--5-4----2-4--4\2--2-|
 Db|-2-3-5-----------------5-------------|
 Ab|-------------------------------------|
 Eb|-------------------------------------|
 
 
 
 
 Riff 1 (Distortion) x2
 eb|-------------------------|
 Bb|-------------------------|
 Gb|-------------------------|
 Db|-------------------------|
 Ab|-------7--5---8--8--8-7\-|
 Eb|-5-555-5--3---6--6--6-5\-|
 * ***
 eb|------------------------|
 Bb|------------------------|
 Gb|------------------------|
 Db|------------------------|
 Ab|-------10\----8-----8\--|
 Eb|-8-888--8\----6-666-6\--|
 * *** * ***
 
 
 Riff 2
 Guitar 1
 eb|-------------------------------------|
 Bb|-------------------------------------|
 Gb|-------------------------------------|
 Db|-7---9---10---7---10---12---10---9---|
 Ab|---0---0----0---0----0----0----0---0-|
 Eb|-------------------------------------|
 * * * * * * * * * * * * * * * *
 "I..."
 eb|----------------------------------|
 Bb|----------------------------------|
 Gb|----------------------------------|
 Db|-10---7---9---6---7-------7---7---|
 Ab|----0---0---0---0---000-0---0---0-|
 Eb|----------------------------------|
 * * * * * * * * * *** * * * * *
 "...feel you..."
 eb|-------------------------------------|
 Bb|-------------------------------------|
 Gb|-------------------------------------|
 Db|-7---9---10---7---10---12---10---9---|
 Ab|---0---0----0---0----0----0----0---0-|
 Eb|-------------------------------------|
 * * * * * * * * * * * * * * * *
 "From beyond the walls..."
 eb|----------------------------------|
 Bb|----------------------------------|
 Gb|----------------------------------|
 Db|-10---7---9---6---7-------7---7\--|
 Ab|----0---0---0---0---000-0---0-a---|
 Eb|----------------------------------|
 * * * * * * * * * *** * *
 "...speak to me..."
 
 Guitar 2
 eb|-------------------------------------------|
 Bb|-------------------------------------------|
 Gb|-------------------------------------------|
 Db|------9------------------------------------|
 Ab|-7-------7----7---9-10-----9--10--9-7------|
 Eb|---------------------------------------5-5-|
 
 Guitar 3
 eb|-------------------------------------------|
 Bb|-----12------------------------------------|
 Gb|-9-------9----9--11-12----11--12-11-9------|
 Db|---------------------------------------7-7-|
 Ab|-------------------------------------------|
 Eb|-------------------------------------------|
 
 
 
 
 Riff 3
 eb|---------------------------------|
 Bb|---------------------------------|
 Gb|---------------------------------|
 Db|---------------------------------|
 Ab|---------2-------3-2-----2-------|
 Eb|-0-000-0-0-0-0-0-1-0-0-0-0-000-0-|
 * *** * * * * * * *** *
 "Christine my love..."
 eb|-------------------------------|
 Bb|-------------------------------|
 Gb|-------------------------------|
 Db|-------------------------------|
 Ab|-5----------3--3-2-------------|
 Eb|-3--3-333-0-1--1-0-0-000-0-0-0-|
 * *** * * *** * * *
 "Paris now will worship you..."
 eb|---------------------------------|
 Bb|---------------------------------|
 Gb|---------------------------------|
 Db|---------------------------------|
 Ab|-2-------2-------3-2-----2-------|
 Eb|-0-000-0-0-0-0-0-1-0-0-0-0-000-0-|
 *** * * * * * * *** *
 "You will star soon..."
 eb|-------------------------------|
 Bb|-------------------------------|
 Gb|-------------------------------|
 Db|-------------------------------|
 Ab|-5----------3--3-2-------------|
 Eb|-3--3-333-0-1--1-0-0-000-0-0-0-|
 * *** * * *** * * *
 "How I'd kill to make a show for you..."
 
 
 Play Riff 2 "Oh my love..."
 Play Riff 3 "Soon I'll take you..."
 
 
 Riff 4
 eb|-----------------------------------|
 Bb|-----------------------------------|
 Gb|-----------------------------------|
 Db|-----------------------------------|
 Ab|-7--------------------8--5--5--5/7-|
 Eb|-5--5-555-555-555-555-6--3--3--3/5-|
 * *** *** *** ***
 eb|-----------------------------|
 Bb|-----------------------------|
 Gb|-----------------------------|
 Db|-----------------------------|
 Ab|-----------------------------|
 Eb|-5-555-555-555-555-555-555-3-|
 * *** *** *** *** *** *** *
 eb|-----------------------------------|
 Bb|-----------------------------------|
 Gb|-----------------------------------|
 Db|-----------------------------------|
 Ab|-7--------------------8--5--5--5/7-|
 Eb|-5--5-555-555-555-555-6--3--3--3/5-|
 * *** *** *** ***
 eb|------------------------------|
 Bb|------------------------------|
 Gb|------------------------------|
 Db|------------------------------|
 Ab|---------------------------77-|
 Eb|-5-555-555-555-555-555-555----|
 * *** *** *** *** *** *** **
 
 
 Play Riff 2 "Oh Christine..."
 Play Riff 3 "Erik, my love..."
 Play Riff 2 "Take my hand..."
 Play Riff 3 "Caverns, mazes..."
 
 
 Riff 5
 Guitar 1
 eb|-----------------------------------|
 Bb|-----------------------------------|
 Gb|-----------------------------------|
 Db|-----------------------------------|
 Ab|-7--------------------8--5--5--5/7-|
 Eb|-5--5-555-555-555-555-6--3--3--3/5-|
 * *** *** *** ***
 eb|-----------------------------|
 Bb|-----------------------------|
 Gb|-----------------------------|
 Db|-----------------------------|
 Ab|-----------------------------|
 Eb|-5-555-555-555-555-555-555-3-|
 * *** *** *** *** *** *** *
 
 Final time
 eb|------------------------------|
 Bb|------------------------------|
 Gb|------------------------------|
 Db|------------------------------|
 Ab|------------------------------|
 Eb|-5-555-555-555-555-555-555-00-|
 * *** *** *** *** *** *** **
 
 
 Guitar 2 
 eb|-------------------------|
 Bb|-------------------------|
 Gb|-------------------------|
 Db|-14-12-14-12-14-15-14-12-|
 Ab|-------------------------|
 Eb|-------------------------|
 * * * * * * * * 
 eb|-------------------------|
 Bb|-------------------------|
 Gb|----------------12-------|
 Db|-14-12-14-12-14----14-12-|
 Ab|-------------------------|
 Eb|-------------------------|
 * * * * * * * * 
 
 
 Riff 6
 Guitar 1
 eb|----------------------------------|
 Bb|----------------------------------|
 Gb|----------------------------------|
 Db|----------------------------------|
 Ab|-5--------------------------------|
 Eb|-3--3-333-333-333-333-333-333-333-|
 * *** *** *** *** *** *** ***
 eb|--------------------------------|
 Bb|--------------------------------|
 Gb|--------------------------------|
 Db|--------------------------------|
 Ab|--------------------------------|
 Eb|-333-333-333-333-333-333-333-55-|
 *** *** *** *** *** *** *** **
 
 Guitar 2
 eb|------------------------------|
 Bb|------------------------------|
 Gb|------------------------------|
 Db|-9-7-9--779-9910-10109-997-77-|
 Ab|------------------------------|
 Eb|------------------------------|
 *** ** * * ** *** **
 
 Guitar 3 (Comes in later, extra harmony in () )
 eb|----------------------------------------------|
 Bb|----------------------------------------------|
 Gb|-(12-10-12)-----------------------------------|
 Db|--12-10-12---101012-121214-141412-121210-1010-|
 Ab|----------------------------------------------|
 Eb|----------------------------------------------|
 * * * * * * * * * * * * * *
 
 Play Riff 5
 Play Riff 6
 Play Riff 5
 Play Riff 6
 
 Lead into next section:
 Guitar 1
 eb|-----|
 Bb|-----|
 Gb|-----|
 Db|-----|
 Ab|--7--|
 Eb|--5--|
 
 Guitar 2
 eb|---------|
 Bb|---------|
 Gb|--9-7-9~-|
 Db|---------|
 Ab|---------|
 Eb|---------|
 * *
 Guitar 3 (Extra harmony in () )
 eb|-(8-7--8~)-|
 Bb|-10-8-10~--|
 Gb|-----------|
 Db|-----------|
 Ab|-----------|
 Eb|-----------|
 * *
 
 
 Riff 7 (12 String Acoustic) x4
 eb|----------------------------------------|
 Bb|----------------------------------------|
 Gb|-----9-10-12-10-9-10---9----9-----------|
 Db|---7---------------------10---9----7----|
 Ab|-0------------------------------10---10-|
 Eb|----------------------------------------|
 "Now I've bathed in fear..."
 x2
 eb|---------------------------0-|
 Bb|--------------------------0--|
 Gb|-------------------------5---|
 Db|---7---7---5---8---7----7----|
 Ab|-0---0---0---0---0---0-------|
 Eb|-----------------------------|
 "Breathe deep the darkness..."
 
 
 Riff 8
 Guitar 1 (Acoustic)
 eb|-----0--0-0-0-0--0--0-|
 Bb|-----1--1-1-0-1--3--1-|
 Gb|-----2--2-2-2-2--2--2-|
 Db|-----2--2-2-2-2--2--2-|
 Ab|-0--------------------|
 Eb|----------------------|
 "Oh Christine..."
 eb|-----1--1-1-0-1--3--3-|
 Bb|-----1--1-1-0-1--1--1-|
 Gb|-----2--2-2-2-2--2--2-|
 Db|-3--------------------|
 Ab|----------------------|
 Eb|----------------------|
 "...don't you know..."
 
 Guitar 2
 eb|----------------------------------------|
 Bb|----------------------------------------|
 Gb|-9-7-9~~---9-7-9-7--10~~---5---5---5-7\-|
 Db|---------------------------------7------|
 Ab|----------------------------------------|
 Eb|----------------------------------------|
 
 eb|-------------------------------------------|
 Bb|--------------------------8--10--8---------|
 Gb|-9-7-9~~---9-7-9-7--10~~-----------10-9~~\-|
 Db|-------------------------------------------|
 Ab|-------------------------------------------|
 Eb|-------------------------------------------|
 
 
 Riff 9
 Guitar 1
 eb|-----------------------------|
 Bb|-----------------------------|
 Gb|-----------------------------|
 Db|-----------------------------|
 Ab|-7----------7------7------7\-|
 Eb|-5--5-5-5-5-5--5-5-5--5-5-5\-|
 * * * * * * * * 
 "So you are..."
 eb|-----------------------------|
 Bb|-----------------------------|
 Gb|-----------------------------|
 Db|-----------------------------|
 Ab|-3----------3------3------3/-|
 Eb|-1--1-1-1-1-1--1-1-1--1-1-1/-|
 * * * * * * * * 
 "...the Phantom Opera Ghost..."
 
 Final time:
 eb|--------------------------------|
 Bb|--------------------------------|
 Gb|--------------------------------|
 Db|--------------------------------|
 Ab|-3----------3------3------3/-11-|
 Eb|-1--1-1-1-1-1--1-1-1--1-1-1/--9-|
 * * * * * * * * 
 
 Guitar 2
 eb|-------------------------------------------------|
 Bb|-------------------------------------------------|
 Gb|-9-7-9~---9-7-9-7~-------------------------------|
 Db|----------------------10-9--7--5-7~----5-7-9--7~-|
 Ab|-------------------------------------------------|
 Eb|-------------------------------------------------|
 
 Guitar 3
 eb|------------------------------------------------|
 Bb|-8-7-8~---8-7-8-7~------------------------------|
 Gb|----------------------9-7--5--4-5~----4-5-7--5~-|
 Db|------------------------------------------------|
 Ab|------------------------------------------------|
 Eb|------------------------------------------------|
 
 Guitar 4
 eb|---------------------------------------------------|
 Bb|-12-10-12~--12-10-12-10~--8-7----------------------|
 Gb|-------------------------------9--7-9~--7-9-11--9~-|
 Db|---------------------------------------------------|
 Ab|---------------------------------------------------|
 Eb|---------------------------------------------------|
 
 Guitar 5
 eb|-12-10-12~--12-10-12-10~----------------------------------|
 Bb|--------------------------13-12--10-----10~-----10-12-10~-|
 Gb|-------------------------------------12------12-----------|
 Db|----------------------------------------------------------|
 Ab|----------------------------------------------------------|
 Eb|----------------------------------------------------------|
 
 
 Riff 10 (Acoustic)
 eb|--------------------------------------|
 Bb|--------------------------------------|
 Gb|--------------------------------------|
 Db|--------------9-----------------------|
 Ab|-------11-----------12-----9-11-12-11-|
 Eb|-9-999----999---999----999------------|
 * *** *** *** ***
 eb|-----------------------------------|
 Bb|-----------------------------------|
 Gb|-----------------------------------|
 Db|--------------9--------------------|
 Ab|-------11-----------12-------------|
 Eb|-9-999----999---999----999-9-8-7-6-|
 * *** *** *** *** * * * * 
 eb|-------------------------------|
 Bb|-------------------------------|
 Gb|-------------------------------|
 Db|-------------7-----------------|
 Ab|-------7-----------7-----7--7\-|
 Eb|-5-555---555---555---555-5--5\-|
 * *** *** *** ***
 eb|----------------------------|
 Bb|----------------------------|
 Gb|----------------------------|
 Db|----------------------------|
 Ab|-------4-4--------6-----6-6-|
 Eb|-2-222-2-2--4-444-4-4-4-4-4-|
 * *** * *** * * 
 
 
 Riff 10a (Distortion)
 eb|--------------------------------------|
 Bb|--------------------------------------|
 Gb|--------------------------------------|
 Db|--------------9-----------------------|
 Ab|-------11-----------12-----9-11-12-11-|
 Eb|-9-999----999---999----999------------|
 * *** *** *** ***
 eb|------------------------------------|
 Bb|------------------------------------|
 Gb|------------------------------------|
 Db|--------------9---------------------|
 Ab|-------11-----------12--------------|
 Eb|-9-999----999---999----999-9-8-77-6-|
 * *** *** *** *** * * ** * 
 eb|-------------------------------|
 Bb|-------------------------------|
 Gb|-------------------------------|
 Db|-------------7-----------------|
 Ab|-------7-----------7-----7--7\-|
 Eb|-5-555---555---555---555-5--5\-|
 * *** *** *** ***
 eb|----------------------------|
 Bb|----------------------------|
 Gb|----------------------------|
 Db|----------------------------|
 Ab|-------4-4--------6-----6-6-|
 Eb|-2-222-2-2--4-444-4-4-4-4-4-|
 * *** * *** * *
 eb|--------------------------------------|
 Bb|--------------------------------------|
 Gb|--------------------------------------|
 Db|--------------9-----------------------|
 Ab|-------11-----------12-----9-11-12-11-|
 Eb|-9-999----999---999----999------------|
 * *** *** *** ***
 eb|-----------------------------------|
 Bb|-----------------------------------|
 Gb|-----------------------------------|
 Db|--------------9--------------------|
 Ab|-------11-----------12-------------|
 Eb|-9-999----999---999----999-9-8-7-6-|
 * *** *** *** *** * * * * 
 eb|-------------------------------|
 Bb|-------------------------------|
 Gb|-------------------------------|
 Db|-------------7-----------------|
 Ab|-------7-----------7-----7--7\-|
 Eb|-5-555---555---555---555-5--5\-|
 * *** *** *** ***
 eb|----------------------------|
 Bb|----------------------------|
 Gb|----------------------------|
 Db|----------------------------|
 Ab|-------4-4--------6-----6-6-|
 Eb|-2-222-2-2--4-444-4-4-4-4-4-|
 * *** * *** * *
 
 
 Riff 11
 Guitar 1
 eb|-------------------------------|
 Bb|-------------------------------|
 Gb|-------------------------------|
 Db|-------------------------------|
 Ab|-7--------7--5--3--------3--5--|
 Eb|-5--------5--3--1--------1--3--|
 
 Guitar 2
 eb|-----------------------------|
 Bb|-----------------------------|
 Gb|-9-------9--7--5-------5--7--|
 Db|-----------------------------|
 Ab|-----------------------------|
 Eb|-----------------------------|
 
 eb|-------------------------------|
 Bb|-------------------------------|
 Gb|-9-------9--7--5-------5--7--9-|
 Db|-------------------------------|
 Ab|-------------------------------|
 Eb|-------------------------------|
 
 
 Play Riff 2 "I'm so torn..."
 Play Riff 3 "Don't you doubt me..."
 Play Riff 2 "Oh dear God..."
 Play Riff 3 "No, this can't be..."
 Play Riff 5
 Play Riff 6
 Play Riff 5
 Play Riff 6
 Play Riff 5
 Play Riff 6
 
 Ending:
 Guitar 1
 eb|-----|
 Bb|-----|
 Gb|-----|
 Db|-----|
 Ab|--7--|
 Eb|--5--|
 
 Guitar 2
 eb|---------|
 Bb|---------|
 Gb|--9-7-9~-|
 Db|---------|
 Ab|---------|
 Eb|---------|
 
 Guitar 3 (Extra harmony in () )
 eb|-(8-7--8~)-|
 Bb|-10-8-10~--|
 Gb|-----------|
 Db|-----------|
 Ab|-----------|
 Eb|-----------|
 * *
 
 
 Repeat intro
 
 
 
 Notation:
 
 10^ = bend a quarter step.
 10b11 = bend a half step.
 10b12 = bend a full step.
 10b12r10 = bend and release.
 [10]12 = pre-bend.
 [10]12r10 = pre-bend and release.
 {14} = pick the 14th fret while holding the most 
 previous bend.
 = touch the string above the 17th fret while 
 previous note(s) is(are) still ringing.
 
 10b13* = tremolo bar bend, from the 10th fret to the 13th fret.
 7d4* = tremolo bar dive, from the 7th fret to the 4th fret. 
 12~* = tremolo bar vibrato.
 
 x = mute with fret-hand
 * = palm mute
 X\\ = pick slide
 h = hammer-on
 p = pull-off
 ~ = vibrato
 t = finger tap
 / = slide up
 \ = slide down
 h. = natural harmonics
 a = artificial harmonics
 (9) = ghost note
 tm = trem picking
 tr = trill
Расскажи друзьям!

Популярное на этой неделе:


www.gitaristu.ru

Призрак оперы — Вики Аккорды

«Призрак оперы» (The Phantom of the Opera) — опера на слова Charles Hart, Richard Stilgoe, музыка Andrew Lloyd Webber.

Исполнители: Пенкин Сергей.

аккорды и текст[править]

 Dm Dm Db C B Bb Bb B C Db Dm Dm Db C B Bb Ab Bb Bb B C Db Dm (Christine) Dm Gm In sleep he sang to me C Dm C Dm In dreams he came Dm Gm That voice which calls to me C Dm And speaks my name Bb And do I dream again C Dmsus4 Dm For now I find Dm The Phantom of the Opera Edim Dm Is there inside my mind Dm Db C B Bb Ab Bb D Db C Bb Gm (Phantom) Gm Cm Sing once again with me F Gm Our strange duet Gm Cm My power over you F Gm Grows stronger yet Eb And though you turn from me F Gm To glance behind Gm The Phantom of the Opera F#dim Gm Is there inside your mind Gm F# F E Eb D D7 Em (Christine) Em Am Those who have seen your face D Em Draw back in fear Em Am I am the mask you wear (Phantom) D Em It's me they hear [Phantom],(Christine) C (Your)/[My] spirit and (my)/[your] voice D Em In one combined Em The Phantom of the Opera Dbdim Em Is there inside [your]/(my) mind (backup) Em C He's there the Phantom of the Opera (Christine) Em Em E D Db C He's there the Phantom of the Opera Em Em E D Db C Ah!... C Db D F F#m [Sing,my angel of music] F#m F#m F E Eb D Ah!... D Eb E F F#m [Sing my a-an-gel] F#m F#m,F,E,Eb,D Ah!... D Eb Gb A Abm [Sing for me] Abm A Gb F# F E Ah!... E F F# Gb A Abm [Sing] Abm A Gb F# F E Ah!... E F F# Gb A Abm [Sing, my angel] Abm Ah!... Abm Ah!... Abm A Gb F# F [SING FOR ME!] Abm AHHH! 

www.wikiakkords.ru


Смотрите также