Как играть на гитаре король и шут медведь


Король и Шут - Медведь, аккорды для гитары

Вступление: e|-0-0-0-0-0-0-0--0-0-0-0-0-0-0-| x2 B|-0-0-0-0-0-0-0--0-0-0-0-0-0-0-| G|-2-2-2-2-2-2-2--4-4-4-4-4-4-4-| D|-3-3-3-3-3-3-3--5-5-5-5-5-5-5-| A|-3-3-3-3-3-3-3--6-6-6-6-6-6-6-| E|-1-1-1-1-1-1-1--3-3-3-3-3-3-3-| Бой: ↓ ↓ ↓ ↓ ↑ ↓ ↓ ↓ ↓ ↓ ↓ ↑ ↓ ↓ Em7 Bm7 Cadd9 G Я жив, покуда я верю в чудо, Asus2 Em F#7 B Но должен буду я умереть. Em7 Bm7 Саdd9 G Мне очень грустно, что в сердце пусто, Asus2 Em F#7 B Все мои чувства забрал медведь. Припев: A# Asus2 A# Asus2 Моя судьба мне неподвластна, A# Asus2 A# Asus2 Любовь моя, как смерть, опасна. Cadd9 G Em Asus2 Погаснет день, луна проснется, Cadd9 G Em Asus2 И снова зверь во мне очнется. Fmaj7 Em Asus2 Em Забрали чары души покой, G6 G7 Возник вопрос: "Кто я такой?" e|------------------------------| x2 B|------------------------------| G|-2-2-2-2-2-2-2--4-4-4-4-4-4-4-| D|-3-3-3-3-3-3-3--5-5-5-5-5-5-5-| A|-3-3-3-3-3-3-3--6-6-6-6-6-6-6-| E|-1-1-1-1-1-1-1--3-3-3-3-3-3-3-| Бой: ↓ ↓ ↓ ↓ ↑ ↓ ↓ ↓ ↓ ↓ ↓ ↑ ↓ ↓ Em7 Bm7 Cadd9 G Мой бедный разум дошел не сразу Asus2 Em F#7 B До странной мысли: я - человек. Em7 Bm7 Cadd9 G Колдун был пьяный, весьма упрямый, Asus2 Em F#7 B Его не видеть бы да ни вовек. Припев: A# Asus2 A# Asus2 Моя судьба мне неподвластна, A# Asus2 A# Asus2 Любовь моя, как смерть, опасна. Cadd9 G Em Asus2 Я был медведем, проблем не знал, Cadd9 G Em Asus2 Зачем людских кровей я стал? Fmaj7 Em Asus2 Em И оборвется тут, словно нить, G6 G7 Мой дар на двух ногах ходить! e|-0-0-0-0-0-0-0--0-0-0-0-0-0-0-------------------------------| x2 B|-0-0-0-0-0-0-0--0-0-0-0-0-0-0-------------------------------| G|-2-2-2-2-2-2-2--4-4-4-4-4-4-4--2-2-2-2-2-2-2--4-4-4-4-4-4-4-| D|-3-3-3-3-3-3-3--5-5-5-5-5-5-5--3-3-3-3-3-3-3--5-5-5-5-5-5-5-| A|-3-3-3-3-3-3-3--6-6-6-6-6-6-6--3-3-3-3-3-3-3--6-6-6-6-6-6-6-| E|-1-1-1-1-1-1-1--3-3-3-3-3-3-3--1-1-1-1-1-1-1--3-3-3-3-3-3-3-| ↓ ↓ ↓ ↓ ↑ ↓ ↓ ↓ ↓ ↓ ↓ ↑ ↓ ↓ ↓ ↓ ↓ ↓ ↑ ↓ ↓ ↓ ↓ ↓ ↓ ↑ ↓ ↓

amdm.ru

Табулатура: Король и Шут (КИШ)


ВСТУПЛЕНИЕ:
 
 Первая гитара играет это:
 
 F G
 E|-0-0-0-0-0-0-0-0-0-0-0-0-0-0-0-0-
 B|-0-0-0-0-0-0-0-0-3-3-3-3-3-3-3-3-
 G|-2-2-2-2-2-2-2-2-4-4-4-4-4-4-4-4-
 D|-3-3-3-3-3-3-3-3-5-5-5-5-5-5-5-5-
 A|-3-3-3-3-3-3-3-3-5-5-5-5-5-5-5-5-
 E|-1-1-1-1-1-1-1-1-----------------
 
 Вторая аккордами (F, G (Бой сами дагоните))
 Всё это два раза.
 
 Далее первая гитара продолжает, вторая играет вот так:
 
 E|-------0-----0-------------0-----------0-----0-------------0-------
 B|-----------------------3-5---3-------------------------3-5---3-----
 G|-----------7---7-----4---------4-----------7---7-----4---------4---
 D|-----7---7-------7-5-------------5---7---7-------7-5-------------5-
 A|-8-8-------------------------------8-------------------------------
 E|-------------------------------------------------------------------
 
 
 КУПЛЕТ 1:
 (аккорды эти где-то уже были, но хочу повториться, так как именно они правильные)
 
 Em Hm C G
 Я жив покуда, я верю в чудо,
 Am Em C H7 
 Но должен буду я умереть.
 Em Hm C G
 Мне очень грустно, что в сердце пусто,
 Am Em C H7 
 Все мои чувства забрал медведь.
 Bb AmBb Am
 Моя судьба мне не подвластна,
 Bb AmBb Am
 Любовь моя, как смерть опасна!
 C G Em Am
 Погаснет день, луна проснётся
 C G Em Am
 И снова зверь во мне очнётся.
 F Em Am Em
 Забрали чары души покой,
 G
 Возник вопрос "Кто я такой?"
 
 
 ПРОИГРЫШ:
 
 Одна гитара играет аккордами (F, G), другая проигрыш:
 
 E|----------1-0--------------------1-0-----------------
 B|--------------3-1-0------------------3-1-0---3-0-1---
 G|-----(2)---------------0-----------------------------
 D|-3------3----------------4-3---3---------------------
 A|-----------------------------------------------------
 E|-----------------------------------------------------
 
 E|---1-0-------------------1-0----------------
 B|-------3-1-0-----------------3-1-0----------
 G|---------------0---------------------2-4----
 D|-3---------------4-3---3------------------2-
 A|--------------------------------------------
 E|--------------------------------------------
 
 
 
 КУПЛЕТ 2:
 
 Мой бедный разум дошёл не сразу
 До странной мысли "Я человек!"
 Колдун был пьяный, весьма упрямый,
 Его не видеть бы да не во век!
 Моя судьба мне не подвластна,
 Любовь моя, как смерть опасна!
 Я был медведем, проблем не знал,
 Зачем людских кровей я стал?
 И оборвётся тут, словно нить,
 Мой дар на двух ногах ходить!
 Хой!
 
 
 ПРОИГРЫШ + концовка на Em.
 
 
 P.S. КиШ рулит! Панки Хой!!!!!!!!!!!!!!!!!!!!!!!!!!!!!!!!!!
 
 
 Убедительная посьба мылить исправления!!!!!!!! 

sing-my-song.com

Король и Шут - Медведь - аккорды, текст песни, видео уроки, варианты боя

Вступление:
 F+7G6 - несколько раз
 (как обычные аккорды на барэ, только первая струна открытая)
 
 EmHmCG
 Я жив покуда, я верю в чудо
 AmEmF# Н
 Но должен буду я умереть.
 Мне очень грустно, что сердце пусто,
 Все мои чувства забрал медведь.
 
 BAmBAm
 Моя судьба мне неподвластна,
 Любовь моя, как смерть опасна,
 CGEmAm
 Погаснет день, луна проснется,
 CGEmAm
 И снова зверь во мне очнется.
 FEmAmEm
 Забрали чары души покой,
 G
 Возник вопрос: "Кто я такой?"
 
 Проигрыш...
 
 Мой бедный разум дошел не сразу
 До странной мысли - я человек…
 Колдун был пьяный, весьма упрямый
 Его не видеть бы да мне вовек.
 Моя судьба мне неподвластна,
 Любовь моя, как смерть опасна.
 Я был медведем, проблем не знал,
 Зачем людских кровей я стал?
 И оборвется, тут словно нить,
 Мой дар на двух ногах ходить!

Расскажите друзьям:


berugitaru.ru

Король и Шут - Медведь: аккорды для гитары, проверенные подборы

  • Аккорды песен
  • ТОП 100
  • Аппликатуры
  • Настройка гитары
Главная → Аккорды 🎸 → Король и Шут → Медведь

Исполнители

  • 25/17
  • 4 апреля
  • 5nizza
  • 7 раса
  • Alai Oli
  • Alekseev
  • Anacondaz
  • Animal ДжаZ
  • Asper X
  • Billy's Band
  • Brainstorm
  • BRUTTO
  • BY Effect
  • Elvis Presley
  • F.P.G.
  • Feduk
  • Flëur
  • IOWA
  • Louna
  • Lumen
  • Nirvana
  • Noize MC
  • Princesse Angine
  • Radio ЧАЧА
  • Rauf & Faik
  • ssshhhiiittt!
  • The Beatles
  • The Hatters
  • The Matrixx
  • The Retuses
  • The Rolling Stones
  • Агата Кристи
  • Адаптация
  • Аквариум
  • Александр Башлачёв
  • Александр Градский
  • Александр Иванов
  • Алексей Глызин
  • Алёна Швец
  • Алиса
  • АлоэВера
  • АнимациЯ
  • Ария
  • АукцЫон
  • Аффинаж
  • Баста
  • Белый орёл
  • Би-2
  • Браво
  • Бранимир
  • Братья Грим
  • Бригада С
  • Булат Окуджава
  • Бумбокс
  • Ва-банкъ
  • Валентин Стрыкало
  • Валерий Меладзе
  • Вася Обломов
  • Високосный Год
  • Владимир Высоцкий
  • Владимир Кузьмин
  • Вопли Видоплясова
  • Воскресение
  • Гарик Сукачев и Неприкасаемые
  • Год Змеи
  • Город 312
  • Градусы
  • Гражданская Оборона
  • Гречка
  • Грибы
  • Григорий Лепс
  • Дай Дарогу!
  • Дайте танк (!)
  • ДДТ
  • Детские песни
  • Евгений Бачурин
  • Егор Натс
  • Ёлка
  • Жуки
  • Звери
  • Земляне
  • Земфира
  • Зимовье Зверей
  • Зоопарк
  • Игорь Растеряев
  • Илья Чёрт
  • Йорш
  • Калинов мост
  • Кино
  • Кирпичи
  • Кис-кис
  • КняZz
  • Коля ROTOFF
  • Конец фильма
  • Константин Ступин
  • Король и Шут
  • Крематорий
  • Кукрыниксы
  • Ленинград
  • Леонид Агутин
  • Леприконсы
  • Лицей
  • ЛСП
  • Любэ
  • Ляпис Трубецкой
  • Маврин
  • МакSим
  • Макс Корж
  • Мара
  • Маша и Медведи
  • Машина Времени
  • Мельница
  • Мимо Вселенной
  • Михаил Боярский
  • Михаил Шуфутинский
  • Михей и Джуманджи
  • Монеточка
  • Моральный кодекс
  • МультFильмы
  • Мумий Тролль
  • Мураками
  • Мурат Насыров
  • Мурат Тхагалегов
  • Муслим Магомаев
  • Наив
  • Найк Борзов
  • Насморк
  • Наутилус Помпилиус
  • Нервы
  • Несчастный случай
  • Ногу Свело!
  • Ночные Снайперы
  • Обе-Рек
  • Океан Ельзи
  • Олег Митяев
  • Ольга Арефьева
  • Операция Пластилин
  • Папин Олимпос
  • Пикник
  • Пилот
  • Пионерлагерь Пыльная Радуга
  • Пицца
  • План Ломоносова
  • Последние танки в Париже
  • Пошлая Молли
  • Ранетки
  • Розенбаум Александр
  • Руки Вверх
  • Свидание
  • Северный флот
  • Секрет
  • Сектор Газа
  • Семён Слепаков
  • Сергей Бабкин
  • Сергей Бобунец
  • Сергей Трофимов
  • СерьГа
  • Скриптонит
  • Слот
  • Смысловые Галлюцинации

www.5lad.ru

Король И Шут - Медведь аккорды, бой и перебор в Ам (Am) и других тональностях @ Chorder.ru

Король И Шут

  • Лайк?
  • Тональн.
    ♭ Em ♯
  • Шрифт
    0
  • Скролл
  • Упростить

Аккорды автоматически упрощены для Вашего удобства.

Запомнить мой выбор

Хорошо Вернуть оригинал

{{вступление}}
 | Fmaj Em7 |
 
 [[куплет|B:DDDD]]
 Em Bm C G
 Я жив, покуда я верю в чудо,
 Am Em F# B
 Но должен буду я умереть.
 Em Bm C G
 Мне очень грустно, что в сердце пусто,
 Am Em F# B
 Все мои чувства забрал медведь.
 
 [[припев]]
 A# Am7 A# Am7
 Моя судьба мне неподвластна,
 A# Am7 A# Am7
 Любовь моя, как смерть, опасна.
 C G Em Am
 Погаснет день, луна проснется,
 C G Em Am
 И снова зверь во мне очнется.
 F Em Am Em
 Забрали чары души покой,
 G G7
 Возник вопрос: "Кто я такой?"
 
 [[куплет_2]]
 Em Bm C G
 Мой бедный разум дошел не сразу
 Am Em F# B
 До странной мысли: я - человек.
 Em Bm C G
 Колдун был пьяный, весьма упрямый,
 Am Em F# B
 Его не видеть бы да мне вовек.
 
 [[припев_2]]
 A# Am7 A# Am7
 Моя судьба мне неподвластна,
 A# Am7 A# Am7
 Любовь моя, как смерть, опасна.
 C G Em Am
 Я был медведем, проблем не знал,
 C G Em Am
 Зачем людских кровей я стал?
 F Em Am Em
 И оборвется тут, словно нить,
 G G7
 Мой дар на двух ногах ходить!

chorder.ru

Аккорды Король и Шут - Медведь (10), табы, текст песни | Аккорды Медведь (10)

Главная > Аккорды > К > Король и Шут


Подбор прислал: gitaristu.ru

 Песня играется на акустике.
 Ритм спокойный.
 Можно перебором добавляя бой сверху – вниз.
 
 Intro: Em C Em C Em7 C Em С
 
 В проигрыше можно на 2ой гитаре играть такое соло:
 1|0-^-0-^-0-^-0-^--0-------0-------0---------------|
 2|0-|-0-|-0-|-0-|--1-0-1---1-0-1---1-0-1-----0/1---|
 3|0-|-0-|-0-|-0-|--------------------------2-------|
 или такое:
 3|-3-3--------------------3-3-------------3-2-3--|
 4|-----5-3-2/3--2--3-2-3------5-3-2/3--2---------|
 
 
 Em Hm С9 G
 Я жив покуда, я верю в чудо,
 Am Em C F#
 Но должен буду я умереть.
 Мне очень грустно, что в сердце пусто,
 Все мои чувства забрал медведь.
 
 F Am C G
 Моя судьба мне не подвластна,
 Любовь моя, как смерть опасна 
 
 Am C Em F
 Погаснет день, луна проснётся
 Am G Em F
 И снова зверь во мне очнется.
 Am G Em F
 Забрали чары души покой,
 Am G
 Возник вопрос: Кто я такой
 
 Проигрыш: Em, Em7, C, C9, Em7, Em вместе с простеньким соло:
 
 
 2|-4-4-4-3-3--------------------|
 3|-----------3-3-3-3-0----------|
 4|---------------------3-2------|
 
 Попробуйте еще вот это соло, его мне один чувак посоветовал:
 1|--------1-0------------------1-0-------------------|
 2|------------3-1---0---0----------3-1---0---1-0-1---|
 3|------------------------2--------------------------|
 4|---(2)--------------------3------------------------|
 5|---------------------------------------------------|
 6|(0)------------------------------------------------|
 
 1|--------1-0------------------1-0-------------------|
 2|------------3-1---0---0----------3-1---0-----0/1---|
 3|------------------------2------------------2-------|
 4|---(2)--------------------3------------------------|
 5|---------------------------------------------------|
 6|(0)------------------------------------------------|
 
 Мой бедный разум дошёл не сразу
 До странной мысли: Я - человек 
 Колдун был пьяный, весьма упрямый,
 Его не видеть бы да не во век 
 
 Моя судьба мне не подвластна,
 Любовь моя, как смерть опасна 
 
 Am C Em F
 Я был медведем, проблем не знал,
 Am G Em F
 Зачем людских кровей я стал
 Am G Em F 
 И оборвётся тут, словно нить,
 Am G
 Мой дар на двух ногах ходить 
 
 Хой 
 
 И снова тот же проигрыш с простеньким соло.
 
 Напишите как песня, Дрон 
 Буду рад.
 
 P.S. Панки ХОЙ 
 
Расскажи друзьям!

Популярное на этой неделе:


www.gitaristu.ru

КУКЛА КОЛДУНА, аккорды, табы, на гитаре

Кукла колдуна — офигенная известная песня КиШей (группы «КОРОЛЬ И ШУТ» )! Добрался я до нее на конец-то =) При разборе композиции сразу же столкнулся с первой трудностью — в родной тональности (Dm) ее нереально сложно спеть, а именно в припевах. Кто пробовал , тот поймет о чем я говорю… А сбацать очень хотелось, поэтому перевел ее в тональность Am. В итоге аккорды максимально упростились. По гитарному бою, тоже были противоречия, но я и тут пошел по проторенной дорожке =)

Бой Кукла колдуна

Вниз—глушить-вверх—вверх-глушить-вверх- и все сначала…

  • в куплетах: проигрывается по 1-му разу на каждом аккорде, кроме последних 3-х аккордов (Dm, E и G) — на них делаем по одному одиночному удару «вниз—«
  • в припевах: бой играется на первом аккорде — 2 раза, на втором — 1 раз + первые 2 движения боя, а на третьем аккорде доигрываем оставшиеся движения
  • в проигрышах: бой проигрывается также как и в припевах.

Бой в последних 2-х строках песни:

Вниз—вниз—вверх-глушить-вверх- и повтор…

  • обыгрывается по 1-му разу на каждом аккорде, кроме последнего (Е) — на нем 2 раза

Аккорды Кукла колдуна

Табы вступления в одну гитару (в тональности Am) — 2 раза:

 Am Am
 1|------0------------------0-------
 2|-----1----0-0-----------1--0-----
 3|----2----------2-2-----2------2--
 4|---2------------------2---------
 5|--0------------------0-----------
 6|--------------------------------
 Am Dm Dm E
 1|-----------1--0-0----------1-0----
 2|----0-1---3--------1-1----3-----0-
 3|--2------2---------------2------1-
 4|--------0---------------0---------
 5|----------------------------------
 6|--------------------------------0-

Проигрыш: Am | Am | Dm | Dm E — 2 раза

Табы для второй гитары в проигрыше (партия скрипки)

 Am
 1|--------------------------------
 2|--13--12-12--10-10---13-12-10---
 Dm Dm E
 1|-----------13--12-12----------13-12-----
 2|--10-12-13------------13-13----------12-

А эти табы (тоже партия скрипки) проигрываются параллельно:

 Am
 2|-----------------------
 3|--5--4-4--2-2---5-4-2--
 Dm Dm E
 2|--------6--5-5--------6-5------
 3|--2-4-5---------5-5--------4---


Спойлер

Аппликатуры присутствующих аккордов:

[свернуть]


 Кукла колдуна — КиШ — Табы-gp5 — Скачать архив (3,7 Кб)! Уже скачали 746 раз(а)

Видео Кукла колдуна

(кавер, аппликатуры аккордов в Am и разбор)

«ЛЕСНИК» (Король и Шут)
«ПРОКЛЯТЫЙ СТАРЫЙ ДОМ»
«ВОСПОМИНАНИЯ О БЫЛОЙ ЛЮБВИ»
«ЕЛИ МЯСО МУЖИКИ»
«ПРЫГНУ СО СКАЛЫ»
«СЕВЕРНЫЙ ФЛОТ»
«ДОБРЫЕ ЛЮДИ»

nagitaru.ru


Смотрите также