Как играть маленькая девочка со взглядом волчицы


Маленькая девочка, аккорды для гитары

Intro: E---------------------------------------------------| B-----0-----0-1h4p1-0-----0-1h4p1-0-----0-0h2p0-----| G---2-----2-------------2-------------2---------2---| x2 D-2-----2-----3-------3-------------3-------------2-| A-0---------------------------------------0---------| E---------------------------------------------------| E-------0-----1-0---0-------------------------------| B----013--3-1-----3---3-1-3-1-0-1-0-----------------| G-2-2-------------------------------0-2-------------| D-------------0-------------------------------2-----| A-0-----------------3-----------------0---0-3-------| E-------------------------3-------------------------| E-------0-----1-0---0-------------------1---1-------| B----013--3-1-----3---3-1-3-1-0-1-0-------1---------| G-2-2-------------------------------0-2-------------| D-------------0-------------------------------------| A-0-----------------3-----------------0-------------| E-------------------------3---------------0---------| 


Am D Fmaj Am Маленькая девочка со взглядом волчицы, D Fmaj Am Я тоже когда-то был самоубийцей. D Fmaj Am F Я тоже лежал в окровавленной ванне, Am G Am И молча вкушал дым марихуаны. Am D Fmaj Am Ты видишь, как мирно пасутся коровы, D Fmaj Am И как лучезарны хрустальные горы. D Fmaj Am F Мы вырвем столбы, мы отменим границы. Am G Am О, маленькая девочка со взглядом волчицы... Пошел небольшой соляк. Изображать его лучше, используя бой там, где идут подритмовки по средним струнам. По этим табам, да еще и на одной гитаре его можно действительно только "изобразить" :) E---------0---1-----------1---0-----------0---1----------1---3-------3---3h5p3| B---0-1-3-------1-1---------1---2---0-1-3-------1-1--------1-----3------------| G-2---------2---2---2-2-----2---2-2---------2---2---2-2----2---4---4---4------| D-----------2-------3---3-------------------2-------3---3------5---5---5------| A-0---------------3-----------0----------------------------------5-------5----| E---------0---1-------1-------------------0---1-------1------3-------3--------| -5-------5------- И входим ---5-5-----5-5--- в куплет ---5---5---5---5- (уже боем) -------7-------7- -----7-------7--- -5-------5------- 

D Fmaj Am Спи сладким сном, не помни о прошлом. D Fmaj Am Дом, где жила ты, пуст и заброшен. D Fmaj Am F И мхом обрастут плиты гробницы Am G Am Маленькой девочки со взглядом волчицы...

Крематорий - Маленькая девочка - аккорды, текст песни, видео уроки, варианты боя

e|-------------------------------------------------------------|
 b|-----0--------0--1-3-1--0--------1--0-1-0--------1--0-1-0----|
 g|---2-------2------------------2---------------2------------2-|
 d|-2------2------------------3---------------3-----------------|
 a|-------------------------------------------------------------|
 E|-------------------------------------------------------------|
 
 G|-----------------7-------------------5----------------|
 D|-7------7------------------7---------------7--------7-|
 A|------------------------------------------------------|
 E|------------------------------------------------------|
 
 e|-------------------------------------------------------------|
 b|------0-------0--1-3-1--0--------1--0-1-0--------1--0-1-0----|
 g|----2------2------------------2---------------2------------2-|
 d|-2------2------------------3---------------3-----------------|
 a|-------------------------------------------------------------|
 E|-------------------------------------------------------------|
 
 G|-----------------7------------------5---------------4------2-|
 D|-7------7------------------7---------------7-----------------|
 A|-------------------------------------------------------------|
 E|-------------------------------------------------------------|
 
 e|------------0-----0--1--0-----0-------------|
 b|------0-1-3----3-----------3-----3--1--3--1-|
 g|-2--2---------------------------------------|
 d|--------------------------------------------|
 a|--------------------------------------------|
 E|--------------------------------------------|
 
 G|------------5--------7--------5--------4-|
 D|-7---------------------------------------|
 A|-----------------------------------------|
 E|-----------------------------------------|
 
 e|---------------|
 b|-0--1--0-------|
 g|----------0--2-|
 d|---------------|
 a|---------------|
 E|---------------|
 
 G|---------------------------9--------|
 D|-5--------7--------9-10-12----10--9-|
 A|---------------12-------------------|
 E|------------------------------------|
 
 e|------------0-----0--1--0-----0------------------------------|
 b|------0-1-3----3-----------3-----3--1--3--1--0--1--0---------|
 g|-2--2-------------------------------------------------0--2---|
 d|-------------------------------------------------------------|
 a|-------------------------------------------------------------|
 E|-------------------------------------------------------------|
 
 G|------------5--------7--------5--------4---------------------|
 D|-7----------------------------------------------5--------7---|
 A|-------------------------------------------------------------|
 E|-------------------------------------------------------------|
 Am D F Am
 Маленькая девочка со взглядом волчицы
 G|--2------------2------------------------------------2--------|
 D|--------2-------------2-----0--------0--3--------3-----------|
 A|----------------------------------0-----------3--------------|
 E|-------------------------------------------------------------|
 
 Я тоже когда-то был самоубийцей
 G|--2------------2------------------------------------2--------|
 D|--------2-------------2-----0--------0--3--------3-----------|
 A|----------------------------------0-----------3--------------|
 E|-------------------------------------------------------------|
 
 Я тоже лежал в окровавленной ванне
 G|--2------------2------------------------------------2--------|
 D|--------2-------------2-----0--------0--3--------3-----------|
 A|----------------------------------0-----------3--------------|
 E|-------------------------------------------------------------|
 F Am G Am
 И молча вкушал дым марихуаны
 G|--2-------------------------2-----------0--------0--2-------|
 D|--------2------3------2--3--------2-----------2------------*|
 A|-----------------------------------------------------------*|
 E|------------------------------------------------------------|
 AmDFAm
 Маленькая девочка со взглядом волчицы...
 DFAm
 Я тоже когда-то был самоубийцей
 DFAmF
 Я тоже лежал в окровавленной ванне
 AmGAm
 И молча вкушал дым марихуаны
 
 Ты видишь, как мирно пасутся коровы
 И как лучезарны хрустальные горы
 Мы вырвем столбы, мы отменим границы
 О, маленькая девочка со взглядом волчицы
 
 Спи сладким сном, не помни о прошлом
 Дом, где жила ты, пуст и заброшен
 И мхом обрастут плиты гробницы
 Маленькой девочки со взглядом волчицы...

Расскажите друзьям:


Крематорий - Маленькая девочка: аккорды для гитары, проверенные подборы

  • Аккорды песен
  • ТОП 100
  • Аппликатуры
  • Настройка гитары
Главная → Аккорды 🎸 → Крематорий → Маленькая девочка

Исполнители

  • 25/17
  • 4 апреля
  • 5nizza
  • 7 раса
  • Alai Oli
  • Alekseev
  • Anacondaz
  • Animal ДжаZ
  • Asper X
  • Billy's Band
  • Brainstorm
  • BRUTTO
  • BY Effect
  • Elvis Presley
  • F.P.G.
  • Feduk
  • Flëur
  • Hi-Fi
  • IOWA
  • LOBODA
  • Louna
  • Lumen
  • Miyagi
  • Miyagi & Эндшпиль
  • Nirvana
  • Noize MC
  • Princesse Angine
  • Radio ЧАЧА
  • Rauf & Faik
  • ssshhhiiittt!
  • The Beatles
  • The Hatters
  • The Matrixx
  • The Retuses
  • The Rolling Stones
  • Агата Кристи
  • Адаптация
  • Аквариум
  • Александр Башлачёв
  • Александр Градский
  • Александр Иванов
  • Алексей Глызин
  • Алёна Швец
  • Алиса
  • АлоэВера
  • АнимациЯ
  • Ария
  • АукцЫон
  • Аффинаж
  • Баста
  • Белый орёл
  • Би-2
  • Браво
  • Бранимир
  • Братья Грим
  • Бригада С
  • Булат Окуджава
  • Бумбокс
  • Ва-банкъ
  • Валентин Стрыкало
  • Валерий Меладзе
  • Вася Обломов
  • Високосный Год
  • Владимир Высоцкий
  • Владимир Кузьмин
  • Владимир Туриянский
  • Вопли Видоплясова
  • Воскресение
  • Гарик Сукачев и Неприкасаемые
  • Год Змеи
  • Город 312
  • Градусы
  • Гражданская Оборона
  • Гречка
  • Грибы
  • Григорий Лепс
  • Дай Дарогу!
  • Дайте танк (!)
  • ДДТ
  • Детские песни
  • Драгни
  • Евгений Бачурин
  • Егор Натс
  • Ёлка
  • Жуки
  • Звери
  • Земляне
  • Земфира
  • Зимовье Зверей
  • Зоопарк
  • Иванушки International
  • Игорь Растеряев
  • Илья Чёрт
  • Йорш
  • Калинов мост
  • Кино
  • Кирпичи
  • Кис-кис
  • КняZz
  • Коля ROTOFF
  • Конец фильма
  • Константин Ступин
  • Король и Шут
  • Крематорий
  • Кукрыниксы
  • Ландыши
  • Ленинград
  • Леонид Агутин
  • Леприконсы
  • Лицей
  • ЛСП
  • Любэ
  • Ляпис Трубецкой
  • Маврин
  • МакSим
  • Макс Корж
  • Мара
  • Маша и Медведи
  • Машина Времени
  • Мельница
  • Мимо Вселенной
  • Михаил Боярский
  • Михаил Шуфутинский
  • Михей и Джуманджи
  • Монеточка
  • Моральный кодекс
  • МУККА
  • МультFильмы
  • Мумий Тролль
  • Мураками
  • Мурат Насыров
  • Мурат Тхагалегов
  • Муслим Магомаев
  • Наив
  • Найк Борзов
  • Насморк
  • Наутилус Помпилиус
  • Нервы
  • Несчастный случай
  • Ногу Свело!
  • Ноль
  • Ночные Снайперы
  • Обе-Рек
  • Океан Ельзи
  • Олег Митяев
  • Ольга Арефьева
  • Операция Пластилин
  • Папин Олимпос
  • Пикник
  • Пилот
  • Пионерлагерь Пыльная Радуга
  • Пицца
  • План Ломоносова
  • Последние танки в Париже
  • Пошлая Молли
  • Ранетки
  • Розенбаум Александр
  • Руки Вверх
  • Свидание
  • Северный флот

Аккорды, табы, бои песни Крематорий

e|-------------------------------------------------------------| b|-----0--------0--1-3-1--0--------1--0-1-0--------1--0-1-0----| g|---2-------2------------------2---------------2------------2-| d|-2------2------------------3---------------3-----------------| a|-------------------------------------------------------------| E|-------------------------------------------------------------| G|-----------------7-------------------5----------------| D|-7------7------------------7---------------7--------7-| A|------------------------------------------------------| E|------------------------------------------------------| e|-------------------------------------------------------------| b|------0-------0--1-3-1--0--------1--0-1-0--------1--0-1-0----| g|----2------2------------------2---------------2------------2-| d|-2------2------------------3---------------3-----------------| a|-------------------------------------------------------------| E|-------------------------------------------------------------| G|-----------------7------------------5---------------4------2-| D|-7------7------------------7---------------7-----------------| A|-------------------------------------------------------------| E|-------------------------------------------------------------| e|------------0-----0--1--0-----0-------------| b|------0-1-3----3-----------3-----3--1--3--1-| g|-2--2---------------------------------------| d|--------------------------------------------| a|--------------------------------------------| E|--------------------------------------------| G|------------5--------7--------5--------4-| D|-7---------------------------------------| A|-----------------------------------------| E|-----------------------------------------| e|---------------| b|-0--1--0-------| g|----------0--2-| d|---------------| a|---------------| E|---------------| G|---------------------------9--------| D|-5--------7--------9-10-12----10--9-| A|---------------12-------------------| E|------------------------------------| e|------------0-----0--1--0-----0------------------------------| b|------0-1-3----3-----------3-----3--1--3--1--0--1--0---------| g|-2--2-------------------------------------------------0--2---| d|-------------------------------------------------------------| a|-------------------------------------------------------------| E|-------------------------------------------------------------| G|------------5--------7--------5--------4---------------------| D|-7----------------------------------------------5--------7---| A|-------------------------------------------------------------| E|-------------------------------------------------------------| AmDFAm Маленькая девочка со взглядом волчицы G|--2------------2------------------------------------2--------| D|--------2-------------2-----0--------0--3--------3-----------| A|----------------------------------0-----------3--------------| E|-------------------------------------------------------------| Я тоже когда-то был самоубийцей G|--2------------2------------------------------------2--------| D|--------2-------------2-----0--------0--3--------3-----------| A|----------------------------------0-----------3--------------| E|-------------------------------------------------------------| Я тоже лежал в окровавленной ванне G|--2------------2------------------------------------2--------| D|--------2-------------2-----0--------0--3--------3-----------| A|----------------------------------0-----------3--------------| E|-------------------------------------------------------------| FAmGAm И молча вкушал дым марихуаны G|--2-------------------------2-----------0--------0--2-------| D|--------2------3------2--3--------2-----------2------------*| A|-----------------------------------------------------------*| E|------------------------------------------------------------| AmDFAm Маленькая девочка со взглядом волчицы... DFAm Я тоже когда-то был самоубийцей DFAmF Я тоже лежал в окровавленной ванне AmGAm И молча вкушал дым марихуаны Ты видишь, как мирно пасутся коровы И как лучезарны хрустальные горы Мы вырвем столбы, мы отменим границы О, маленькая девочка со взглядом волчицы Спи сладким сном, не помни о прошлом Дом, где жила ты, пуст и заброшен И мхом обрастут плиты гробницы Маленькой девочки со взглядом волчицы...

Крематорий - Маленькая девочка - аккорды на укулеле

 
Intro: E---------------------------------------------------| B-----0-----0-1h4p1-0-----1-0hp1-0-----1--0h2p0-----| G---2-----2-------------2----------2--2---------2---| D-2-----2-----3-------3-----3-------3---------------| A-0---------------------------------------0---------| E---------------------------------------------------| E-----------0---0---1-0---0----------------------------------------| B----0h2p3----3---------3---3-1-3-1-0-1-0--------------------------| G-2-2-------------------------------------0----2-------------------| D-----------2-------0-----------------2-----------------0-2--------| A-0-----------------------3-----2--------------0--0-2-3-----3-2----| E------------------------------------------------------------------| Am D F Am Маленькая девочка со взглядом волчицы, D F Am Я тоже когда-то был самоубийцей, D F Am Я тоже лежал в окровавленной ванне F G Am И молча вкушал дым марихуаны. D F Am Ты видишь, как мирно пасутся коровы D F Am И как лучезарны хрустальные горы. D F Am Мы вырвем столбы, мы отменим границы, D F Am О, маленькая девочка со взглядом волчицы! D F Am Спи сладким сном, не помни о прошлом. D F Am Дом, где жила ты, пуст и заброшен. D F Am И мхом обрастут плиты гробницы D F Am Маленькой девочки со взглядом волчицы...

Аккорды Крематорий - Маленькая Девочка, табы, текст песни | Аккорды Маленькая Девочка

Главная > Аккорды > К > Крематорий


Подбор прислал: gitaristu.ru
Двойной альбом, *Живые и мертвые*
 Маленькая Девочка
 
 Am D F Am
 Маленькая девочка со взглядом волчицы...
 D F Am
 Я тоже когда-то был самоубийцей
 D F Am F
 Я тоже лежал в окровавленной ванне
 F Am G Am
 И молча вкушал дым марихуаны
 
 Ты видишь, как мирно пасутся коровы.
 И как лучезарны янтарные горы.
 Мы вырвем столбы, мы отменим границы,
 О маленькая девочка со взглядом волчицы.
 
 Спи сладким сном, не помни о прошлом.
 Дом, где жила ты, пуст и заброшен.
 И мхом обросли плиты гробницы
 Маленкой девочки со взглядом волчицы.
 
 -
 
 Am D F Am
 Маленькая девочка, со взглядом волчицы,
 
 Я тоже когда-то был самоубийцей,
 
 Я тоже лежал в окровавленной ванной
 F Am G Am
 И молча вкушал дым марихуаны.
 
 Ты видишь как мирно пасутся коровы
 И как лучезарны хрустальные горы,
 Мы вырвем столбы, мы отменим границы,
 О, маленькая девочка, со взглядом волчицы.
 
 Спи сладким сном, не думай о прошлом,
 Дом где жила ты, пуст и заброшен
 И мхом обрастут плиты гробницы,
 О, маленькая девочка, со взглядом волчицы.
 
 -
 
 [E---------------------------------------------------|
 B-----0-----0-1h4p1-0-----0-1h4p1-0-----0-0h2p0-----|
 G---2-----2-------------2-------------2---------2---| } 2 раза
 D-2-----2-----3-------3-------------3-------------2-|
 A-0---------------------------------------0---------|
 E---------------------------------------------------|
 
 E-------0-----1-0---0-------------------------------|
 B----013--3-1-----3---3-1-3-1-0-1-0-----------------|
 G-2-2-------------------------------0-2-------------|
 D-------------0-------------------------------2-----|
 A-0-----------------3-----------------0---0-3-------|
 E-------------------------3-------------------------|
 
 E-------0-----1-0---0-------------------1---1-------|
 B----013--3-1-----3---3-1-3-1-0-1-0-------1---------|
 G-2-2-------------------------------0-2-------------|
 D-------------0-------------------------------------|
 A-0-----------------3-----------------0-------------|
 E-------------------------3---------------0---------|]
 
 Далее, способы игры аккордов:
 Am D Fmaj F G
 [---1---1- ---2---2- ---0---0- ---1---1- ---3---3-
 -----1--- -----3--- -----1--- -----1--- -----3---
 -2------- -2------- -2------- -2------- -4-------
 --------- -0------- -3------- --------- ---------
 -0------- -----0--- -----0--- -3------- -5-------
 -----0--- --------- --------- -----1--- -----3---]
 
 Потихоньку заменять боем к концу.
 Можно продолжать играть под вторую гитару с боем.
 
 Am D Fmaj Am
 Маленькая девочка со взглядом волчицы,
 D Fmaj Am
 Я тоже когда-то был самоубийцей.
 D Fmaj Am F
 Я тоже лежал в окрававленной ванне,
 Am G Am
 И молча вкушал дым марихуаны.
 Ты видишь, как мирно пасутся коровы,
 И как лучезарны хрустальные горы.
 Мы вырвем столбы, мы отменим границы.
 О, маленькая девочка со взглядом волчицы...
 
 Пошел небольшой соляк. Изображать его лучше,
 используя бой там, где идут подритмовки по средним
 струнам. По этим табам, да еще и на одной гитаре его
 можно действительно только изобразить :)
 
 [E---------0---1-----------1---0-----------0---1----------1---3-------3---3h5p3|
 B---0-1-3-------1-1---------1---2---0-1-3-------1-1--------1-----3------------|
 G-2---------2---2---2-2-----2---2-2---------2---2---2-2----2---4---4---4------|
 D-----------2-------3---3-------------------2-------3---3------5---5---5------|
 A-0---------------3-----------0----------------------------------5-------5----|
 E---------0---1-------1-------------------0---1-------1------3-------3--------|
 
 -5-------5------- И входим
 ---5-5-----5-5--- в куплет
 ---5---5---5---5- (уже боем)
 -------7-------7-
 -----7-------7---
 -5-------5-------]
 
 D ...
 Спи сладким сном, не помни о прошлом.
 Дом, где жила ты, пуст и заброшен.
 И мхом обрастут плиты гробницы
 Маленькой девочки со взглядом волчицы...
 
 Hа последнем Am возвращаемся с боя к
 начальному варианту перебора и утихаем.
 
 -
 
 Intro: [e--5-7--5-7-8-10-8-7--5-8-7-8-7-5--5-8-7-8-7-5-
 b-5----5-------------6------------6------------
 g---------------------------------------------- } повторить 2 раза
 d----------------------------------------------
 a----------------------------------------------
 e----------------------------------------------
 
 e------------10-12-10-12-13-12-10-12-10-8-10-8--------------
 b-10-10-12-13---------------------------------12-13-12-8-10-
 g----------------------------------------------------------- повторить
 d----------------------------------------------------------- / 2 раза
 a-----------------------------------------------------------
 e-----------------------------------------------------------]
 
 Куплет: Am D F Am D F Am D F Am F Am
 [e--0-0-0-0-0-0-0-0---------0-0-0-0----------0-0-0-0--------0-0------0-0-
 b---1---1---1---1------1-1--1---1-------1-1--1---1-------1--1--1-1---1--
 g-2---2---2---2----2-2--2-2---2-----2-2--2-2---2-----2-2--2-----2--2----
 d-----------------0-4-3------------0-4-3------------0-4-3-----3---------
 a-----------------------------------------------------------------------
 e-----------------------------------------------------------------------
 G Am
 e-------0-0-0-0-----------------------
 b--3-3---1---1------------------------
 g-0-4--2---2--------------------------
 d-------------------------------------
 a-------------------------------------
 e-------------------------------------]
 
 (1) Маленькая девочка со взглядом волчицы
 Я тоже когда-то был самоубийцей
 Я тоже лежал в окровавленной ванне
 И молча вкушал дым марихуаны
 
 (2) Ты видишь как мирно пасутся коровы
 И как лучезарны хрустальные горы
 Мы вырвем столбы, мы отменим границы
 О маленькая девочка, со взглядом волчицы
 
 Solo: [e ---------10-12--13-------13-12---------10-12--13--17-13-17-15-
 b -10-12-13---------13-10--------10-12-13---------13------------
 g -----------------------10-------------------------------------
 d --------------------------------------------------------------
 a --------------------------------------------------------------
 e --------------------------------------------------------------
 
 e --17-15-12--------12-10--8----
 b ----------15-13-10------8-10--
 g ------------------------------
 d ------------------------------
 a ------------------------------
 e ------------------------------]
 
 (3) Спи сладким сном, не думай о прошлом
 Дом где жила ты пуст и заброшен
 И мхом обростут плиты гробницы
 Маленькой девочки со взглядом волчицы
 
 P.S. Это упрощенная версия, так как я переложил партию
 фортепиано на гитару.
Расскажи друзьям!

Популярное на этой неделе:


Маленькая Девочка Крематорий Аккорды, тексты песен, видео.

 
Двойной альбом, *Живые и мертвые*
 Маленькая Девочка
 
 Am D F Am
 Маленькая девочка со взглядом волчицы...
 D F Am
 Я тоже когда-то был самоубийцей
 D F Am F
 Я тоже лежал в окровавленной ванне
 F Am G Am
 И молча вкушал дым марихуаны
 
 Ты видишь, как мирно пасутся коровы.
 И как лучезарны янтарные горы.
 Мы вырвем столбы, мы отменим границы,
 О маленькая девочка со взглядом волчицы.
 
 Спи сладким сном, не помни о прошлом.
 Дом, где жила ты, пуст и заброшен.
 И мхом обросли плиты гробницы
 Маленкой девочки со взглядом волчицы.
 
 -
 
 Am D F Am
 Маленькая девочка, со взглядом волчицы,
 
 Я тоже когда-то был самоубийцей,
 
 Я тоже лежал в окровавленной ванной
 F Am G Am
 И молча вкушал дым марихуаны.
 
 Ты видишь как мирно пасутся коровы
 И как лучезарны хрустальные горы,
 Мы вырвем столбы, мы отменим границы,
 О, маленькая девочка, со взглядом волчицы.
 
 Спи сладким сном, не думай о прошлом,
 Дом где жила ты, пуст и заброшен
 И мхом обрастут плиты гробницы,
 О, маленькая девочка, со взглядом волчицы.
 
 -
 
 [E---------------------------------------------------|
 B-----0-----0-1h4p1-0-----0-1h4p1-0-----0-0h2p0-----|
 G---2-----2-------------2-------------2---------2---| } 2 раза
 D-2-----2-----3-------3-------------3-------------2-|
 A-0---------------------------------------0---------|
 E---------------------------------------------------|
 
 E-------0-----1-0---0-------------------------------|
 B----013--3-1-----3---3-1-3-1-0-1-0-----------------|
 G-2-2-------------------------------0-2-------------|
 D-------------0-------------------------------2-----|
 A-0-----------------3-----------------0---0-3-------|
 E-------------------------3-------------------------|
 
 E-------0-----1-0---0-------------------1---1-------|
 B----013--3-1-----3---3-1-3-1-0-1-0-------1---------|
 G-2-2-------------------------------0-2-------------|
 D-------------0-------------------------------------|
 A-0-----------------3-----------------0-------------|
 E-------------------------3---------------0---------|]
 
 Далее, способы игры аккордов:
 Am D Fmaj F G
 [---1---1- ---2---2- ---0---0- ---1---1- ---3---3-
 -----1--- -----3--- -----1--- -----1--- -----3---
 -2------- -2------- -2------- -2------- -4-------
 --------- -0------- -3------- --------- ---------
 -0------- -----0--- -----0--- -3------- -5-------
 -----0--- --------- --------- -----1--- -----3---]
 
 Потихоньку заменять боем к концу.
 Можно продолжать играть под вторую гитару с боем.
 
 Am D Fmaj Am
 Маленькая девочка со взглядом волчицы,
 D Fmaj Am
 Я тоже когда-то был самоубийцей.
 D Fmaj Am F
 Я тоже лежал в окрававленной ванне,
 Am G Am
 И молча вкушал дым марихуаны.
 Ты видишь, как мирно пасутся коровы,
 И как лучезарны хрустальные горы.
 Мы вырвем столбы, мы отменим границы.
 О, маленькая девочка со взглядом волчицы...
 
 Пошел небольшой соляк. Изображать его лучше,
 используя бой там, где идут подритмовки по средним
 струнам. По этим табам, да еще и на одной гитаре его
 можно действительно только изобразить :)
 
 [E---------0---1-----------1---0-----------0---1----------1---3-------3---3h5p3|
 B---0-1-3-------1-1---------1---2---0-1-3-------1-1--------1-----3------------|
 G-2---------2---2---2-2-----2---2-2---------2---2---2-2----2---4---4---4------|
 D-----------2-------3---3-------------------2-------3---3------5---5---5------|
 A-0---------------3-----------0----------------------------------5-------5----|
 E---------0---1-------1-------------------0---1-------1------3-------3--------|
 
 -5-------5------- И входим
 ---5-5-----5-5--- в куплет
 ---5---5---5---5- (уже боем)
 -------7-------7-
 -----7-------7---
 -5-------5-------]
 
 D ...
 Спи сладким сном, не помни о прошлом.
 Дом, где жила ты, пуст и заброшен.
 И мхом обрастут плиты гробницы
 Маленькой девочки со взглядом волчицы...
 
 Hа последнем Am возвращаемся с боя к
 начальному варианту перебора и утихаем.
 
 -
 
 Intro: [e--5-7--5-7-8-10-8-7--5-8-7-8-7-5--5-8-7-8-7-5-
 b-5----5-------------6------------6------------
 g---------------------------------------------- } повторить 2 раза
 d----------------------------------------------
 a----------------------------------------------
 e----------------------------------------------
 
 e------------10-12-10-12-13-12-10-12-10-8-10-8--------------
 b-10-10-12-13---------------------------------12-13-12-8-10-
 g----------------------------------------------------------- повторить
 d----------------------------------------------------------- / 2 раза
 a-----------------------------------------------------------
 e-----------------------------------------------------------]
 
 Куплет: Am D F Am D F Am D F Am F Am
 [e--0-0-0-0-0-0-0-0---------0-0-0-0----------0-0-0-0--------0-0------0-0-
 b---1---1---1---1------1-1--1---1-------1-1--1---1-------1--1--1-1---1--
 g-2---2---2---2----2-2--2-2---2-----2-2--2-2---2-----2-2--2-----2--2----
 d-----------------0-4-3------------0-4-3------------0-4-3-----3---------
 a-----------------------------------------------------------------------
 e-----------------------------------------------------------------------
 G Am
 e-------0-0-0-0-----------------------
 b--3-3---1---1------------------------
 g-0-4--2---2--------------------------
 d-------------------------------------
 a-------------------------------------
 e-------------------------------------]
 
 (1) Маленькая девочка со взглядом волчицы
 Я тоже когда-то был самоубийцей
 Я тоже лежал в окровавленной ванне
 И молча вкушал дым марихуаны
 
 (2) Ты видишь как мирно пасутся коровы
 И как лучезарны хрустальные горы
 Мы вырвем столбы, мы отменим границы
 О маленькая девочка, со взглядом волчицы
 
 Solo: [e ---------10-12--13-------13-12---------10-12--13--17-13-17-15-
 b -10-12-13---------13-10--------10-12-13---------13------------
 g -----------------------10-------------------------------------
 d --------------------------------------------------------------
 a --------------------------------------------------------------
 e --------------------------------------------------------------
 
 e --17-15-12--------12-10--8----
 b ----------15-13-10------8-10--
 g ------------------------------
 d ------------------------------
 a ------------------------------
 e ------------------------------]
 
 (3) Спи сладким сном, не думай о прошлом
 Дом где жила ты пуст и заброшен
 И мхом обростут плиты гробницы
 Маленькой девочки со взглядом волчицы
 
 P.S. Это упрощенная версия, так как я переложил партию
 фортепиано на гитару.

Видео для песни "Маленькая Девочка":

Текст песни Malen'kaya devochka so vzglyadom volchitsy (Маленькая девочка со взглядом волчицы) + перевод на Английский (Версия #2)

Malen'kaya devochka so vzglyadom volchitsy (Маленькая девочка со взглядом волчицы)

Маленькая девочка со взглядом волчицы...

Я тоже когда-то был самоубийцей

Я тоже лежал в окровавленной ванне

И молча вкушал дым марихуаны

 

Ты видишь, как мирно пасутся коровы.

И как лучезарны янтарные горы.

Мы вырвем столбы, мы отменим границы,

О маленькая девочка со взглядом волчицы.

 

Спи сладким сном, не помни о прошлом.

Дом, где жила ты, пуст и заброшен.

И мхом обросли плиты гробницы

Маленькой девочки со взглядом волчицы

 

В последний раз исправлено в пт, 03/05/2019 - 20:32 перевод на АнглийскийАнглийский (metered, rhyming)

My little girl with that gaze of a she-wolf

My little girl with that gaze of a she-wolf,

I also committed a suicide just like you would,

I also once lay inside the blood-covered bath,

In silence inhaled the fumes of the hash.

 

You see how peaceful are cows on the pasture,

How radiant is the light that amber hills capture.

We'll pull out pillars, will remove borders for good.

Oh, my little girl with that gaze of a she-wolf…

 

Sweet dreams I wish for you, don’t dwell on the past.

The house where you've lived is abandoned and trashed.

And moss have covered the slabs of tomb's roof,

Of my little girl with that gaze of a she-wolf.

 

Добавлено в чт, 18/04/2019 - 00:26 В последний раз исправлено в пт, 09/08/2019 - 18:21


Смотрите также