Как играть кино кончится лето


Кончится лето. Аккорды, на гитаре

«Кончится лето» — одна из самых лучших композиций от легендарной группы «Кино».  (Черный альбом — 1990)
Смело скажу, что песня хорошо подойдет для начинающих гитаристов, т.к. играется самым распространенным боем — «6-ка», да и в аккордах песни отсутствует прием баррэ, если не брать в расчет вступление / проигрыш.
В общем, «жгите» господа!

Краткое описание гит. боя, табы, текст с аккордами и видео:

По сути, вся песня играется боем — «шестеркой», в большинстве с глушением:

вниз—глушить-вверх—вверх-глушить-вверх- и все сначала…

  • в проигрышах проигрывается по 2 раза (на аккордах Em, D, Hm)  и по 1-му (на С и Am)
  • в куплетах — 4 раза (на аккорде Em), 2 раза (на Am) и снова на Em — только уже 2 раза.
  • в припевах — по 1-му разу (на D и C), 2 раза ( на Em)

На словах припева «Я…» , «Больше надежд…» и «Скоро…» можно для мягкости звучания убрать глушение:

вниз—вниз-вверх—вверх-вниз-вверх-….

Начинать петь нужно  с последнего аккорда вступления / проигрыша -> D:
 D          Em
Я выключаю….

Для точного разбора аккомпанемента рекомендую скачать табы «Кончится лето» (Кино)   Zip-файл (300 Кb) Скачали 1251 раз(а)

Аккорды в оригинальной тональности — Em:

«Кончится лето»

Вступление / проигрыш: Em, D, Hm, C, Am, D

Табы  для второй гитары:

 Видео (кавер 2-ух куплетов и припевов. Аппликатуры аккордов) Спел как смог на тот момент.

nagitaru.ru

Виктор Цой - Кончится лето, аккорды для гитары

Вступление: Em D Bm C Am D 1--3-3-3-2-0-2-2-2-5-0-2-2-2-5-0-0-0-0-3-2-0 2--0-0-0-0-0-3-3-3-3-0-3-3-3-3-0-1-1-1-3-3-0 3--0-0-0-0-0-2-2-2-2-0-4-4-4-4-0-0-0-2-2-2-0 }x2 4--2-2-2-2-2-0-0-0-0-0-4-4-4-4-0-2-2-2-0-0-0 5--2-2-2-2-2-0-0-0-0-0-2-2-2-2-0-3-3-0-0-0-0 6--0-0-0-0-0-0-0-0-0-0-2-2-2-2-0-0-0-0-0-0-0 Em Я выключаю телевизор, я пишу тебе письмо Em Про то, что больше не могу смотреть на дерьмо, Am Про то, что больше нет сил, Em Про то, что я почти запил, но не забыл тебя. Em Про то, что телефон звонил, хотел, чтобы я встал, Em Оделся и пошел, а точнее, побежал, Am Но только я его послал, Em Сказал, что болен и устал, и эту ночь не спал. Припев: D C Em D C Em Я жду ответа, больше надежд нету. D C Em D C Em Скоро кончится лето. Это... Em А с погодой повезло - дождь идет четвертый день, Em Хотя по радио сказали - жаркой будет даже тень. Am Но, впрочем, в той тени, где я, Em Пока и сухо и тепло, но я боюсь пока... Em А дни идут чередом - день едим, а три пьем, Em И вообщем весело живем, хотя и дождь за окном. Am Магнитофон сломался, Em Я сижу в тишине, чему и рад вполне. Припев: D C Em D C Em Я жду ответа, больше надежд нету. D C Em D C Em Скоро кончится лето. Это... Em За окном идет стройка - работает кран, Em И закрыт пятый год за углом ресторан. Am А на столе стоит банка, Em А в банке тюльпан, а на окне - стакан. Em И так уйдут за годом год, так и жизнь пройдет, Em И в сотый раз маслом вниз упадет бутерброд. Am Но может будет хоть день, Em Может будет хоть час, когда нам повезет. Припев: D C Em D C Em Я жду ответа, больше надежд нету. D C Em D C Em Скоро кончится лето. Это...

amdm.ru

Табулатура: Кино (Виктор Цой) - Кончится лето


Кончится лето.
 Вступление 
 Am D 
 |-------------------------------------2--2--2--2--2--2--2-2-5-3-2----| 
 |--5--8--8--8--8--8--8--8-7-5------3---------------------------------| 
 |-----------------------------4------------------------------------------| 
 |------------------------------------------------------------------------| 
 |------------------------------------------------------------------------| 
 |------------------------------------------------------------------------| 
 Hm C 
 |-----2--2--2--2--2--2--2-2-5-3-2------------------------------------| 
 |--3--------------------------------------------------------------------| 
 |---------------------------------------5--5--5--5--5--5--5-8-7------| 
 |------------------------------------5--------------------------4-------| 
 |---------------------------------------------------------------------- 
 |-----------------------------------------------------------------------| 
 2-ой куплет: 
 Em Am 
 |-------------------------------|-----------------------------| 
 |-------------------------------|-----------------------------| 
 |-------------------------------|--2-4-5-4-2-4-5-4-2-4-5-4| 
 |--2-4-5-4-2-4-5-4-2-4-5-4--|-----------------------------| 
 |-------------------------------|-----------------------------| 
 |-------------------------------|-----------------------------| 
 3-ий куплет: 
 Em Am 
 |----------------------3-2-0----|-----------------------8-7-5-| 
 |--------------------------------|----------------5------------| 
 |----------------4---------------|--2------5-------------------| 
 |--2------5---------------------|-----------------------------| 
 |--------------------------------|-----------------------------| 
 |--------------------------------|-----------------------------| 
 
 Пачка сигарет. 
 Вступление: 
 e|------------7--5--------3-----------5-----------7--5---------| 
 b|------------------5--------5-----------7--------------5-------| 
 g|-----4--5------------5--------5-7---------5--4-----------5--| 
 d|---------------------------------------------------------------| 
 a|---------------------------------------------------------------| 
 e|---------------------------------------------------------------| 
 
 e|--3-----------5--------------------------------------------------| 
 b|-----5-----------7-----------------------------------------------| 
 g|--------5--7--------5--4----------------------------------------| 
 d|------------------------------------------------------------------| 
 a|------------------------------------------------------------------| 
 e|------------------------------------------------------------------| 
 Вступление+ 
 e|--10-10-10--10-8-7-8-10--10-8-7-8-10--10-8-7-8-10//12-12-12------| 
 b|------------------------------------------------------------------------------| 
 e|--12-10-8-10-12--12-10-8-10-12---------------------------------------| 
 b|----------------------------------------------------------------------------| 

sing-my-song.com

Виктор Цой - Кончится лето, аккорды для гитары

Вступление: Em D Bm C Am D 1--3-3-3-2-0-2-2-2-5-0-2-2-2-5-0-0-0-0-3-2-0 2--0-0-0-0-0-3-3-3-3-0-3-3-3-3-0-1-1-1-3-3-0 3--0-0-0-0-0-2-2-2-2-0-4-4-4-4-0-0-0-2-2-2-0 }x2 4--2-2-2-2-2-0-0-0-0-0-4-4-4-4-0-2-2-2-0-0-0 5--2-2-2-2-2-0-0-0-0-0-2-2-2-2-0-3-3-0-0-0-0 6--0-0-0-0-0-0-0-0-0-0-2-2-2-2-0-0-0-0-0-0-0 Em Я выключаю телевизор, я пишу тебе письмо Em Про то, что больше не могу смотреть на дерьмо, Am Про то, что больше нет сил, Em Про то, что я почти запил, но не забыл тебя. Em Про то, что телефон звонил, хотел, чтобы я встал, Em Оделся и пошел, а точнее, побежал, Am Но только я его послал, Em Сказал, что болен и устал, и эту ночь не спал. Припев: D C Em D C Em Я жду ответа, больше надежд нету. D C Em D C Em Скоро кончится лето. Это... Em А с погодой повезло - дождь идет четвертый день, Em Хотя по радио сказали - жаркой будет даже тень. Am Но, впрочем, в той тени, где я, Em Пока и сухо и тепло, но я боюсь пока... Em А дни идут чередом - день едим, а три пьем, Em И вообщем весело живем, хотя и дождь за окном. Am Магнитофон сломался, Em Я сижу в тишине, чему и рад вполне. Припев: D C Em D C Em Я жду ответа, больше надежд нету. D C Em D C Em Скоро кончится лето. Это... Em За окном идет стройка - работает кран, Em И закрыт пятый год за углом ресторан. Am А на столе стоит банка, Em А в банке тюльпан, а на окне - стакан. Em И так уйдут за годом год, так и жизнь пройдет, Em И в сотый раз маслом вниз упадет бутерброд. Am Но может будет хоть день, Em Может будет хоть час, когда нам повезет. Припев: D C Em D C Em Я жду ответа, больше надежд нету. D C Em D C Em Скоро кончится лето. Это...

amdm.ru

КОНЧИТСЯ ЛЕТО Группа Кино, текст, аккорды, видеоразбор

Русский рок под гитару

—Группа “Кино” и Виктор Цой

Текст песни, аккорды, табулатура, видеоразбор

Музыка и слова Виктор Цой





_                                                                                                        _рекомендуемый рисунок:

(в тональности Em)

 Em D 1-я ---0-3--3-3-3-3-3-2-0-------2--2-2-2-2-2-2-5- 2-я -0--------------------0---3------------------ 3-я --------------------------------------------- 4-я ------------------------0-------------------- 5-я --------------------------------------------- 6-я -0------------------------------------------- Hm C Am D 1-я -3------2-2-2-2-2-2-5-3-----0-0-0-0-0-3-2-0---- 2-я ----0-3-------------------0------------------0- 3-я ----------------------------------------------- 4-я --------------------------------------0-------- 5-я -2----------------------3---------0------------ 6-я ----------------------------------------------- Em D 1-я ---0-3--3-3-3-3-3-2-0------2--2-2-2-2-2-2-5- 2-я ----------------------0--3------------------ 3-я -------------------------------------------- 4-я -----------------------0-------------------- 5-я -------------------------------------------- 6-я -0------------------------------------------ Hm C Am D 1-я -3------2-2-2-2-2-2-5-3-----0-0-0-0-0-3-- 2-я ----0-3-------------------0-------------- 3-я ----------------------------------------- 4-я --------------------------------------0-- 5-я -2----------------------3---------0------ 6-я -----------------------------------------

_          _ Em
Я выключаю телевизоря пишу тебе письмо
Про то что больше не могу смотреть на дерьмо
_              _ Am
Про то что больше нет сил
_          _ Em
Про то что я почти запил но не забыл тебя

_               _ Em
Про то что телефон звонил, хотел, чтобы я встал
Оделся и пошел а точнее, побежал
_             _ Am
Но только я его послал
_                                                  _ Em
Сказал что болен и устал и эту ночь не спал

_          _ D   C            Em     D  C                          Em
Припев: Я      жду ответа     больше надежд нету
_             _ D  C                    Em     D  C  Em
_          _ Скоро кончится лето.             Это

А с погодой повезло дождь идет четвертый день
Хотя по радио сказали жаркой будет даже тень
Но впрочем в той тени где я
Пока и сухо и тепло но я боюсь пока

А дни идут чередом день едим а три пьем
И в общем весело живем хотя и дождь за окном
Магнитофон сломался
Я сижу в тишине чему и рад вполне

Припев.

За окном идет стройка работает кран
И закрыт пятый год за углом ресторан
А на столе стоит банка
А в банке тюльпан а на окне стакан

И так уйдут за годом год так и жизнь пройдет
И в сотый раз маслом вниз упадет бутерброд
Но может будет хоть день
Может будет хоть час когда нам повезет

Припев.
_          _

pesnipodgitaru.ru


Смотрите также